Tablatura para Guitarra de Antologia: Nostalgia
Conexión · Inscripción
Letras y Acordes
Pantalla Completa
Imprimir
Versión Texto
Añadir Favorito
Otras Versiones

Mostrar Diagramas
Desfile Automático
Manipular Acordes
Formato del Texto


Nostalgia(TAB)

Antologia

calidad:
anto0043
AUTOR: Antologia
ALBUM: desconocido
Enviado por Hugo
HOLA,MEDIANTE ESTE TABS QUIERO MANDAR SALUDOS A MI PROMO 2005
(PAJIÑO,RICARDO,POCH,LACUCA,KATY,CHANA,HARY,DIEGO,PECHIS,CROWEL,
MAYLER),TAMBIEN PA MIS AMIGOS: YEREMI, BLADIMIR, NEYDA,
KATTY, LA PULGA, LLESICA, MELODI, ROBERT..ESTA ES LA PRIMERA
Y ULTIMA PARTITURA QUE PUBLICARE VOY A DESAPARECER POR UN BUEN
TIEMPO DE TODOS USTEDES PROMO)
PS VOY A DEJAR TODO…ME HE PLANTEADO UNA VISION Y SI ME ESFUERZO
ESTOY SEGURO Q LO LOGRARE, YA ME ENTENDERAN. Y SI LO LOGRO YA LE
CAERE EL 2007CON LA SORPRESA.BUENO ME DESPIDO Y HASTA ENTONCES…
CHAU JENTITA.







  INTRO

e|--12v-------------13------|
B|-----10--12--13-----------|
G|--------------------------|
D|--------------------------|
A|--------------------------|
E|--------------------------|

E|--10v---------15--------13-.12-------12-----|
B|-----------------------------15-.-15--------|
G|--------12---------12-----------------------|
D|--------------------------------------------|
A|--------------------------------------------|
E|--------------------------------------------|

e|-------8-----------12--.10------10---|
B|----10-----10-12-13------13.-13------|
G|--9----------------------------------|
D|-------------------------------------|
A|-------------------------------------|
E|-------------------------------------|

e|--7------7—10r8-7-8---8-7--------7----------|
B|-------9------------------9-8---9---10------|
G|-----9------------------------9-------------|
D|--------------------------------------------|
A|--------------------------------------------|
E|--------------------------------------------|

    INTERMEDIO:

e|--12-12-10---------|
B|-------------12----|
G|-------------------|  I
D|-------------------|
A|-------------------|
E|-------------------|

e|--------12-11-12--12-10-9-10-8----|
B|----------------------------------|
G|--9-9-9---------------------------|
D|----------------------------------|  II  (BIS I;II)
A|----------------------------------|
E|----------------------------------|


e|-----8--12-13-12-13-10---|
B|---10--------------------|
G|--9----------------------|
D|-------------------------|
A|-------------------------|
E|-------------------------|

e|----7s10-13-12-13-12---|
B|---9-------------------|
G|--9--------------------|
D|-----------------------|
A|-----------------------|
E|-----------------------|

e|-----8--12-13-12-13-10---|
B|---10--------------------|
G|--9----------------------|
D|-------------------------|
A|-------------------------|
E|-------------------------|

e|-13--12-10---10—--------------------|
B|----------13--13—-13r12---9-10-----|
G|------------------------------------|
D|------------------------------------|
A|------------------------------------|
E|------------------------------------|

   FINAL:

e|---------------------------------|
B|----5-3--------------------------|
G|-----------4-5---2-1-2-4----1-2--|
D|---------------------------------|  (BIS)
A|---------------------------------|
E|---------------------------------|






654321
======/
||o|||
|o|o|o
||||||       TERMINA POR COMPLRTO RASGUANDO UNA SOLA VES ESTA NOTA




OJO;  las parte que están entre puntos
 es pa que suban la 1 y 2  cuerda  velos
mente y después como lo indica bajar con
cierta rapidez ya me entenderán al escuchar
la canción . Y no se preocupen si desean pueden
prostituir mi trabajo no soy egoísta; quejas o
dudas al correo que se encuentra arriba ps
Este fichero es trabajo propio de su transcriptor y representa su interpretación personal de la canción. El material contenido en esta página es
para exclusivo uso privado, por lo que se prohibe su reproducción o retransmisión, así como su uso para fines comerciales.

© LaCuerda.net · Aviso Legal · Privacidad