Acordes de Guitarra » A »Antologia » Mentiras (Tab)

Mentiras
Antologia

Letras, Acordes y Tabs para Guitarra, Bajo y Ukulele

  • e/|--9-7------------||---------------------------------------|
    B/|-----10-10-10/9--||----------7-7/9----------7-7/9---7/9-5-|
    G/|-9-------------9-||-7-6-7-7/9------7-6-7-7/9--------------|
    D/|-----------------||---------------------------------------|
    A/|-----------------||---------------------------------------|
    E/|-----------------||---------------------------------------|
    
    e/|-9-7-------12V--10-9-10-7--10-9-10-7--||-14/16-12-|
    B/|----10-10-9--------------7----------7-||----------|
    G/|-9------------------------------------||----------|
    D/|--------------------------------------||----------|
    A/|--------------------------------------||----------|
    E/|--------------------------------------||----------|
    
    Mentira
    FA#m
    que me amaste con toda ternura
          LA                 MI
    y que entregaste toda tu inocencia, mentiraa
          RE                 LA          MI
    
  • +
    ¡Colabora con nosotros!
    Envíanos tu versión de esta canción

Letra de Mentiras
Mentira
que me amaste con toda ternura
y que entregaste toda tu inocencia, mentiraa
Mentira
que me diste todo en un beso
y que juraste amarme por siempre,mentiraaa
ya veras que todo lo que haces se paga en la vida
y sentirás,como duele el alma cuando se marchita sangra mi agonía
ya veras que todo lo que haces se paga en la vida
y sentiras,como duele el alma cuando se marchita sangra mi agonia
por la herida
Me esconderé
mi tristeza al verte ajena
recordando lo que hemos vivido,asi me ireee
Y lloraras
aunque huyas a lo infinito
Pero un milagro de vida ha quedado entre los dos
ya veras que todo lo que haces se paga en la vida
y sentirás,como duele el alma cuando se marchita sangra mi agonía
ya veras que todo lo que haces se paga en la vida
y sentirás,como duele el alma cuando se marchita sangra mi agonía
ya veras que todo lo que haces se paga en la vida
y sentirás,como duele el alma cuando se marchita sangra mi agonía
por la herida




[Mentiras chords][Mentiras cifra]
© LaCuerda.net · aviso legal · privacidad · es · en · pt · contacto