Acordes de Guitarra » A »Annette Moreno » Así es la vida (Tab)

Así es la vida
Annette Moreno

Letras, Acordes y Tabs para Guitarra, Bajo y Ukulele

  • Em                Am7
    Mis pies cansados, seguir no
           Em    
    puedo, el viaje es largo,
    Am7               Em
    lleno de enredos, asì es la vida
    Am7            Em             Am7
    es lo que dicen mi sacrificio en 
    
    vano lo hice.
    
    //precoro//
      D         Em
    Exclamo al cielo,
        D       Em          D
    no puedo me muero, no encuentro
         Em         D        Em
    mi estrella no brilla no sale.
    
    //CORO//
    
  • INTRO: Em-C //
    
    E-3-2----------------------------------
    B-----5-3------------------------------
    G---------4-2-----2-4-5-4-2---2-4-5-4--
    D-------------4*5-----------5----------
    A--------------------------------------
    E--------------------------------------
    
    E-3-2-------------------------------------
    B-----5-3---------------------------------
    G---------4-2-----2-4-5-4h5h4-2---2-4-5-4-
    D-------------4*5---------------5---------
    A-----------------------------------------
    E-----------------------------------------
    
    Arpegios de la guitarra dentro del verso:
    
        (E10)
    
    
  • +
    ¡Colabora con nosotros!
    Envíanos tu versión de esta canción

Letra de Así es la vida
Mis pies cansados, seguir no
puedo, el viaje es largo,
lleno de enredos, asì es la vida
es lo que dicen mi sacrificio en
vano lo hice.
//precoro//
Exclamo al cielo,
no puedo me muero, no encuentro
mi estrella no brilla no sale.
Cansado del camino no encuentro
mi destino, buscando lo perdido
en los mares del olvido.
Asì es la vida, es lo que dicen.
Mi cruz es grande solo no puedo,
confiar en alguien es lo que quiero.
Asì es la vida es lo que dicen,
sin el la vida no tiene chiste.
/precoro/
Cansado del camino, he encontrado
mi destino, buscando lo perdido
me encontraste soy tu hijo.
Asì es la vida es lo que digo.




[Así es la vida chords][Así es la vida cifra]
© LaCuerda.net · aviso legal · privacidad · es · en · pt · contacto
DINAMICO