Acordes de Guitarra » A »Anibal Arias » Volver (Tab)

Volver
Anibal Arias

Letras, Acordes y Tabs para Guitarra, Bajo y Ukulele

  • UNA VERSIÓN DE LUJO DEL MAESTRO ANIBAL ARIAS. ES TRANSCRIPCIÓN
    DIRECTA DE PARTITURA. DISFRÚTENLA.
    
    VOLVER
    
    e|--|0--------0--------|------0h2-0---|-------------|-------------||
    B|-2|-------2--------2-|----3---4---4-|-5h2-2h3-2-1-|-2h0---0-----||
    G|--|-----2--------0---|----4---2-----|-2-----2-----|-2---3h1-2-1-||
    D|--|---2--------2-----|----4---4-----|-2-----0-----|-1-----0-4-0-||
    A|--|0--------1--------|-2------3-----|-4-----------|-2-----------||
    E|--|------------------|--------------|-0-----2-----|-------0-----||
    
    e|---0-0-0-------|-0h0-0h0h0-----0-|-----------------|--------------|
    B|-------0-3-1-3-|-1-------1-3-1---|-3h3-3h3h3-1-0-3-|-1------------|
    G|-2-----1-------|-2-------0-------|-2-------1-------|--2-------4-7-|
    D|-2-----3-------|-2-------2-------|-3-------3-------|--2-2h3-5-----|
    A|-4-------------|-0-------0-------|-----------------|-0--------5-8-|
    E|-5-------------|-----------------|-1-------0-------|----3h5-7-----|
    
    e|--3-3h3-1-0-1-|-3h3-3h3h3-1-0-3-|-1-1-1-1-1-0---1-|-
  • +
    ¡Colabora con nosotros!
    Envíanos tu versión de esta canción



Video de Volver
[]




[Volver chords][Volver cifra]
© LaCuerda.net · aviso legal · privacidad · es · en · pt · contacto