Acordes de Guitarra » A »Anibal Arias » La Cumparsita (Tab)

La Cumparsita
Anibal Arias

Letras, Acordes y Tabs para Guitarra, Bajo y Ukulele

  • ESPERO QUE LO DISFRUTEN, ES TRANSCRIPCIÓN
    DIRECTA DE LA PARTITURA DE ANIBAL ARIAS. LES RECOMIENDO IR
    ESCUCHANDO EL TEMA, PUES EL RITMO ES MUY PARTICULAR.
    ESPERO QUE LO DISFRUTEN.
    
    
    
    e|-1-/5-6-5-|-5-----3h3-6-5-|----3-5-3-|-3-----1h1-5-3---|---1-3h5-
    B|------7---|-----3---3---3-|----5-5---|-----1-----------|---3-----
    G|------5---|---3-----3---3-|----3-3---|---2-----2-------|---2-----
    D|--3/7-----|---------------|----------|---3-----3-------|-0-------
    A|------6---|---5-----5-----|-4----3---|-0-------------0-|---------
    D|----------|-5-------------|----------|-----------------|---------
    
    e|-3-1-0---|-1-----0h0-3-1-----|----0-0h1-------|----------3-----|
    B|-------3-|-----0---3---------|----2---2h2-2h2-|-3----------5---|
    G|-2-------|---1-----0---------|----0---0-------|-2--3--2----6-6-|
    D|---------|---3---------------|----------------|-3--6--5----5---|
    A|-3-------|-2-------1-----2h3-|-4------2-------|-0--5--4----0---|
    D|---------|-------------------|--------1-------|-0--4--2--------|
    
    e|---
  • +
    ¡Colabora con nosotros!
    Envíanos tu versión de esta canción



Video de La Cumparsita
[]




[La Cumparsita chords][La Cumparsita cifra]
© LaCuerda.net · aviso legal · privacidad · es · en · pt · contacto