Acordes de Guitarra » A »Anibal Arias » Sur (Tab)

Sur
Anibal Arias

Letras, Acordes y Tabs para Guitarra, Bajo y Ukulele

  • ES UNA EXCELENTE VERSIÓN DEL TANGO INTERPRETADO POR
    ANIBAL ARIAS Y TRANSCRIPTO DIRECTAMENTE DE UNA PARTITURA
    
    SUR
    
    e|-------------|---------------|0h0------0-0h|3h1h0----------------
    B|-------------|-2h2-2h2h2-3h4h|3h3------2---|--3---3h1h0--0h1h0---
    G|-4h5h6-6-6-6-|-1-----0-------|1h1------0---|--2--------2-----1---
    D|-------------|-2-----2-------|-------------|--0-------1------0h3-
    A|-------------|-0-----1-------|--2-2h1------|----------2----------
    E|-------------|---------------|-------------|----------2------0---
    
    e|------------|-----------------|-------------|-----------------|
    B|--------0-1-|-3-1-1-0-0-------|-0-----------|-0h0-0h0h0h0-3h1h|
    G|------------|-2-------1-2-2-1-|-2-2-----2-3-|---------2-------|
    D|-2h1h2------|-3-------0-------|-2-----------|-1-------1-------|
    A|------------|-2-------2-------|-3-----0-----|-2-------2-------|
    E|------------|---------0-------|------0------|-2-------1-------|
    
    e|---------------------|0---0-----------|-0----------------0h|1h1-
    B|0--------
  • +
    ¡Colabora con nosotros!
    Envíanos tu versión de esta canción



Video de Sur
[]




[Sur chords][Sur cifra]
© LaCuerda.net · aviso legal · privacidad · es · en · pt · contacto