Acordes de Guitarra » A »Andrés Calamaro » Sus ojos se cerraron (Tab)

Sus ojos se cerraron
Andrés Calamaro

Letras, Acordes y Tabs para Guitarra, Bajo y Ukulele

  •               Gm
    Sus ojos se cerraron
                         A7
    y el mundo sigue andando,
                     D7
    su boca que era mía
                  Gm
    ya no me besa más.
    
                      G7
    Se apagaron los ecos
                  Cm
    de su reír sonoro
    
    y es cruel este silencio
            A7        D7
    que me hace tanto mal.
    
                   Gm
    Fue mía la piadosa
    
  • E-||---6--------5--------3----------3--1s0-----------3-------3-----||
    B-||-------3--------3--------3----3--------3-------5-------5---5---||
    G-||-----3--------3--------3----3----------------3-------3-------3-||
    D-||-5--------4--------3-------------------------------------------||
    A-||-------------------------------------------4-------------------||
    E-||---------------------------------------------------------------||
    
    E-||---------2-------------3-6-3-8-5-10----------||
    B-||-------4-------------3-----------------------||
    G-||-----2-------------3----------------12-------||
    D-||---4-------------5---------------------------||
    A-||-3-------------5-----------------------------||
    E-||-------------3-------------------------------||
    
    
                   SOLm
    Sus ojos se cerraron
        SOLm/maj7       LA7
    y el mundo sigue andando,
                    RE7
    
  • +
    ¡Colabora con nosotros!
    Envíanos tu versión de esta canción

Letra de Sus ojos se cerraron
Sus ojos se cerraron
y el mundo sigue andando,
su boca que era mía
ya no me besa más.
Se apagaron los ecos
de su reír sonoro
y es cruel este silencio
que me hace tanto mal.
Fue mía la piadosa
dulzura de sus manos,
que dieron a a mi pecho,
caricias de bondad,
y ahora que la evoco
hundido en mi quebranto,
las lágrimas trenzadas
se niegan a brotar,
y no tengo el consuelo
de poder llorar.
Por qué sus alas tan cruel quemo la vida
por qué esa mueca siniestra de la suerte
Quise abrigarla y más pudo la muerte,
cómo me duele y se ahonda esa herida.
Yo sé que ahora vendrán caras extrañas
con su limosna de alivio a mi tormento,
todo es mentira, mentira es el lamento
Hoy esta sólo mi corazón
Como perros de presa,
las penas traicioneras,
celando su cariño,
galopaban detrás,
Y escondida en las aguas
de su mirada buena
la muerte agazapada
marcaba su compás.
En vano yo alentaba
febril una esperanza
clavó en mi carne viva
sus garras el dolor,
y mientras en la calle
con loca algarabía
el carnaval del mundo
gozaba y se reía
burlándose el destino
me robó mi amor...
Por qué sus alas tan cruel quemo la vida
por qué esa mueca siniestra de la suerte
Quise abrigarla y más pudo la muerte,
cómo me duele y se ahonda esa herida.
Yo sé que ahora vendrán caras extrañas
con su limosna de alivio a mi tormento,
todo es mentira, mentira es el lamento
Hoy esta sólo mi corazón




[Sus ojos se cerraron chords][Sus ojos se cerraron cifra]
© LaCuerda.net · aviso legal · privacidad · es · en · pt · contacto
DINAMICO