Acordes de Guitarra » A »Andrés Calamaro » Tuyo siempre (Tab)

Tuyo siempre
Andrés Calamaro

Letras, Acordes y Tabs para Guitarra, Bajo y Ukulele

  • LAm                        REm
    Si alguna vez no me vuelven a ver
                  SOL                               DO
    porque a mí como a todos se me olvida
                     MI         MI7               LAm
    algo va a quedar adentro tuyo siempre
             FA            MI              LAm      
    algo que yo te dejé alguna vez.
    
    No importa si nos venís conmigo
    este viaje es mejor hacerlo solo
    Yo te voy a recordar todos los días
    porque un amor así nunca se olvida.
    
                REm                SOL           DO            FA     
    Te seguiría por todas partes y volvería a la ciudad
              SI7       FA        MI
    si me das otra oportunidad
    
                         LAm                     REm
    
  • MIm                            LAm
    Si alguna vez no me vuelven a ver
             RE                      SOL
    porque a mí como a todos se me olvida
         SI7                          MIm
    algo va a quedar adentro tuyo siempre
          DO         SI7       MIm
    algo que yo te dejé alguna vez.
    
    
    No importa si nos venís conmigo
    este viaje es mejor hacerlo solo
    Yo te voy a recordar todos los días
    porque un amor así nunca se olvida.
    
    
            LAm           RE              SOL       DO
    Te seguiría por todas partes y volvería a la ciudad
          FA   SI7        MIm
    si me das otra oportunidad
    
  • ola!
    weno aki les dejo la tabladura correcta!
    unque ustedes diran si esta correcta dle!
    aki va!
    
    1|-----------------------------5-----------------------------------------7-
    2|--5—7—8—7—5-------5—7—8—7—5-----8—7---------7—8—10—8—7------7—8—10—8—7---
    3|------------4------------------------5------------------5----------------
    4|-------------------------------------------------------------------------
    5|-------------------------------------------------------------------------
    6|-------------------------------------------------------------------------
    
    
    1|--7—7—7-7-8-7--------------7—7—7-7-8-7--------7-----------7--------------
    2|--------------10—8—7-------------------10—8—7---5--7-8-10--10-8-7-8-7-^5-
    3||------------------------------------------------------------------------
    4||------------------------------------------------------------------------
    5||------------------------------------------------------------------------
    6||-------------------------------------
  •   1   2   3   4   |
    
    G|----------------|
    D|----------------| x 4
    A|----2-2-----2-2-|
    E|0-------0-------|
    
      INTRO:
    
      1   2   3   4   |
    
    G|----------------|----------------|----------------|----------------|
    D|----------------|----2-2-----2-2-|0-------0-------|----------------|
    A|----2-2-----2-2-|0-------0-------|----0-0-----0-0-|----5-5-----0-1-|
    E|0-------0-------|----------------|----------------|3-------3-------|
    
    
      1   2   3   4   |
    
    G|----------------|----------------|----------------|----------------|
    D|----4-4-----4-4-|----------------|----------------|----------------|
    A|2-------2-------|----2-2-----2-2-|3-------2-------|----2-2---------|
    E|----------------|0-------0-------|----3-3-----2-2-|0-------0-------|
    
    
      VERSOS:
    
      1   2   3   4   |
    
    G|----------------|----------------|----------------|----------------|
    D|----------------|----2-2-----2-2-|----------------|----------------|
    A|----2-2-----2-2-|0-------0-------|----0-0---------|----0-0-----0-0-|
    E|0-------0-------|------
  •       _____________________________________
         /
    +---+---------------------------------------+---+
    |   | 1 | 2 | 3 | 4 | 5 | 6 | 7 | 8 | 9 | 10| C |
    +---+---------------------------------------+---+
          _____________________________________/
    
    Intro:
    (6)(7) 7 (7)(6) 5
    (6)(7) 7 (7)(6)(8) 7 (7)(5)
    (7) 7 (8) 7 (7)(5)
    (7) 7 (8) 7 (7) 8
    
     8  8  8 (9) 8  8 (7) 7 (8)
     8  8  8 (9) 8  8 (6)(7) 7
    (6)(7) 7 (9)    8 (8) 7     7 (7)(6)
    
    
    Si alguna ves no te vuelven a ver
    (6)(6)(7) 7     (6)(7) 7 (8) 8 (8)
    porque a mi como todo se me olvida
    (10)(10) 9    9  9 (10) 9  9 (9)(9) 8
    algo va a quedar dentro tuyo simpre
     8  8  8  8  8 (9) 8 (8) 8 (8) 7
    algo que yo te deje alguna vez
    (6)(6)(9)(9)(9)(9) 8 (7)(8) 7 (6)
    
    
    No importa si no venis conmigo
    8 (6)(6)   (6)(6)(6)(10) 9  9 (9)
    este viaje es mejor hacerlo solo
    (10)(10)(10) 9  9  9 (10) 9  9 (9)(9) 8
    yo te voy a recordar todos los dias
     8  8  8  8  8  8 (9) 8 (8) 8 (8) 7
    porque un amor asi nunca se olvida
    (6)(6)(9)(9)(9)(9) 8 (7)(8) 7 (7)(6)
    
    
    Te seg
  • EL TIEMPO ES 4 POR 4 Y LA PIEZA NO ESTA ALTERADA
    
    Lam                       REm     SOLM                     DOM
    
    la si do la la si do re mi fa,  sol la sol re mi fa fa mi fa sol mi
    
    MIM                            LAm    FAM               MIM
    
    re mi fa si si si si fa mi re mi do, la do fa fa fa fa mi re do
              G  G  G  G                       A  A  A  A
       LAm
    
    si la
    
    
    
    LAm         LAM                   REm  SOLM
    
    mi do si la sol# la do# mi la sol fa,  sol sol la sol sol sol la
    
    DOM
    
    sol sol fa fa mi
    
    
    REm                              LAm  Lam
    
    re mi fa si si si si fa mi re mi la, la do
              G  G  G  G
    
                     MIM
    
    fa fa fa fa mi re do si si la
    
    REm          SOLM                DOM
    
    mi la si la la la la do si si, la sol fa
    
                     FAM
    
    sol sol sol sol si la la
    g         g  g  g  g
    
           REm           MIM             LAm                     REm
    
    sol fa# fa la sol# fa mi re mi, do re mi re do mi sol sol sol sol fa
    
    SOLm                          DOM       
  • +
    ¡Colabora con nosotros!
    Envíanos tu versión de esta canción
  • Tutorial
    Como tocar Tuyo Siempre - A. Calamaro (Acordes Guitarra - Tutorial Mejorado)
    9:34

Letra de Tuyo siempre
Si alguna vez no me vuelven a ver
porque a mí como a todos se me olvida
algo va a quedar adentro tuyo siempre
algo que yo te dejé alguna vez.
No importa si nos venís conmigo
este viaje es mejor hacerlo solo
Yo te voy a recordar todos los días
porque un amor así nunca se olvida.
Te seguiría por todas partes y volvería a la ciudad
si me das otra oportunidad
de volver a empezar, mejor que antes
Quiero darte cada uno de mis instantes
nunca más voy a mentir de nuevo
porque no voy a olvidarte nunca más.
Si alguna vez no me vuelven a ver
porque a mí como a todos se me olvida
algo va a quedar adentro tuyo siempre
algo que yo te dejé alguna vez.
Y volvería por todas partes
para encontrarte y preguntarte
si me das otra oportunidad
para ser mejor y ya empiezo a olvidar
porque queda mucho tiempo por delante.
Algo va a quedar adentro tuyo siempre
algo que yo te dejé alguna vez.
Porque no voy a olvidarte nunca más
porque yo no te voy a olvidar.
Sole, esta canción va para ti. No sé si te gustará o no,
yo creo que va con tu modo de ver las cosas. Lo único que
espero es poder cantártela algún día, quién sabe cuándo.




[Tuyo siempre chords][Tuyo siempre cifra]
© LaCuerda.net · aviso legal · privacidad · es · en · pt · contacto