Acordes de Guitarra » A »Amaral » Biarritz (Tab)

Biarritz
Amaral

Letras, Acordes y Tabs para Guitarra, Bajo y Ukulele

  • Intro: Em C G D  (x2)   D C D Em Em C G Em
    
        Em                   C
    Has puesto lo tuyo sin hablar
                    G              D
    Y siento que tu risa es llanto
              C
    Cuando buscaste en mi
                     D
    Dónde nunca hubo nada
    
    Veo colores y formas que se van
    Y un tímido lamento hispano
    Tiemblo al sentir
    Como quemas tus alas en mi.
    
    Estribillo:
      Em                   C
    Biarritz, dormida soledad
              G              D
    
  • INTRO: Em C D Em (x4)
    
        Em
    Has puesto lo tuyo sin hablar
                    D              Dsus4  D
    Y siento que tu risa es llanto
               C
    Cuando buscas en mí
                       D   Dsus4  D
    Donde nunca hubo nada.
    
      Em
    Colores y formas que se van
                   D            Dsus4  D
    Y un tímido lamento hispano
                   C
    Tiemblo al sentir
                    D          Dsus4  D
    Como quemas tus alas en mí.
    
    
  • e--12---10-12---14-12-10----10-7------|
    B------------------------10-----------|
    G-------------------------------------|
    D-------------------------------------| x2
    A-------------------------------------|
    E-------------------------------------|
    
    e--7---5-3--2-3-5-7-5--3-0----7--10--12---14-12-10----10-7------|
    B---------------------------------------------------10----------|
    G---------------------------------------------------------------|
    D---------------------------------------------------------------|
    A---------------------------------------------------------------|
    E---------------------------------------------------------------|
    
    First Chorus
    
       Em C            D            C             D
    e--0--------------------------------------------------|
    B--0--------3-1-0--------3-1-0----1-3-1-0-------------|
    G--0------0------------2--------4---------0---2-------|
    
  • +
    ¡Colabora con nosotros!
    Envíanos tu versión de esta canción

Letra de Biarritz
Has puesto lo tuyo sin hablar
Y siento que tu risa es llanto
Cuando buscaste en mi
Dónde nunca hubo nada
Veo colores y formas que se van
Y un tímido lamento hispano
Tiemblo al sentir
Como quemas tus alas en mi.
Estribillo:
Biarritz, dormida soledad
Lleva tus pasos hacia el mar
Que no despierte ya,
Que no pueda escapar
Riff: Em C D C Em G D C
Más lejos que nunca voy a estar
Como un pálido reflejo
Es tan difícil ya
Que cierren mis heridas
Veo colores y formas que se van
y un tímido lamento Hispano
Tiemblo al sentir
Como quemas tus alas en mi.
Estribillo:
Y el tiempo aparece ante los dos
Mi dulce muerte, mi dolor
Como un testigo cruel
Que se impone sin hablar
Biarritz, dormida soledad
Lleva tus pasos hacia el mar
Que no despierte ya,
Que no pueda escapar
Siento que el calor se apaga
Y sé que la vida se va
Hasta el final,
Aprieta hasta el final.
Biarritz, dormida soledad
Lleva tus pasos hacia el mar
Que no despierte ya,
Que no pueda escapar
Biarritz, dormida soledad
Lleva tus pasos hacia el mar
Que no despierte ya,
Que no pueda escapar
Y el tiempo aparece ante los dos
Mi dulce muerte, mi dolor
Como un testigo cruel
Que se impone sin hablar
Biarritz, dormida soledad
Lleva tus pasos hacia el mar
Que no despierte ya,
Que no pueda escapar




[Biarritz chords][Biarritz cifra]
© LaCuerda.net · aviso legal · privacidad · es · en · pt · contacto