Acordes de Guitarra » A »Almafuerte » Pensando en llegar (Tab)

Pensando en llegar
Almafuerte

  • Tablatura
    ---0--3--5--6---0---------esto 3 vecez----6 cuerda
    
    ------2--------------0--------
    ------2--------------5----------
    ------0---0-2-3-0----4------------
    ------0---0-2-3-0----2-----------
    --2---2------------2------
    --0---3------------0--------
    E5
    rota la caja del carro (intro)
    E5
    cuarta y quinta ya palmaron (intro)
    E5
    tersereando voy a muerte   [intro]
    E5
    por cumplir con almafuerte (intro))
    
    LA cosa siempre......
    ---------3---------------2----------
    ---------0---------------3-------
    
  • +
    ¡Colabora con nosotros!
    Envíanos tu versión de esta canción

Letra de Pensando en llegar
rota la caja del carro (intro)
cuarta y quinta ya palmaron (intro)
tersereando voy a muerte [intro]
por cumplir con almafuerte (intro))
alli esperando estan mis amigos hey..
no tengo que demorar,
debo cumplir con mi destino y lo are...



© LaCuerda.net · aviso legal · privacidad · contacto
DINAMICO