Acordes de Guitarra » A »Alex y Roy » Enamorado de ti (Tab)

Enamorado de ti
Alex y Roy

Letras, Acordes y Tabs para Guitarra, Bajo y Ukulele

  •             Dm                           C
    e/---5-5-5--5------5------5-------5-5-5--3------3------3----------
    B/------------6------6------6--------------5------5------5--------
    G/--------------7------7------7--------------5------5------5------
    D/----------------------------------------------------------------
    
                A#                    F             C
    e/---3-3-3--1------1------1-------1------1------0------0------0---
    B/------------3------3------3-------1------1------1------1--------
    G/--------------3------3------3-------2------2------0------0------
    D/----------------------------------------------------------------
    
        Dm                            C
    Ha pasado tanto tiempo y no he podido olvidarte
           A#                  F - C
    esque sigo enamorado yo de ti
         Dm                           C
    Comenzo desde el colegio y hasta ahora no comprendo
         A#                                F         C
    el porque no puedo expresarte lo que siento por ti
    
  • +
    ¡Colabora con nosotros!
    Envíanos tu versión de esta canción

Letra de Enamorado de ti
Ha pasado tanto tiempo y no he podido olvidarte
esque sigo enamorado yo de ti
Comenzo desde el colegio y hasta ahora no comprendo
el porque no puedo expresarte lo que siento por ti
Esque te quiero a ti desde aquel dia
desde aquel dia en que yo te conoci
Me enamore de ti por tu sonrisa
por tu mirada que se robo mi corazon
Ya ha pasado mucho tiempo y no he podido confezarte
lo que siento porque tu estas de novia con el
Tu me consideras un amigo mas
pero no te das cuenta que este amigo a ti te quiere amar
Y perdon estoy borracho esque bebi por ti
pero vengo hoy de frente a que me escuches lo que te voy a decir
Esque te quiero a ti desde aquel dia
desde aquel dia en que yo te conoci
Me enamore de ti por tu sonrisa
por tu mirada que se robo mi corazon
Y aunque tu estes con el yo no te olvidare
y perdona que mas tarde un beso te dare
Eeee mi corazon esta roto por ti
necesita de tu amor para que pueda vivir vivir
Enviado por Byron Siza G.(Abue)
dudas y comentarios al correo: Abuelee@gmail.com

Video de Enamorado de ti
[]




[Enamorado de ti chords][Enamorado de ti cifra]
© LaCuerda.net · aviso legal · privacidad · es · en · pt · contacto