Acordes de Guitarra » A »Alex y Roy » Bendito Alcohol (Tab)

Bendito Alcohol
Alex y Roy

Letras, Acordes y Tabs para Guitarra, Bajo y Ukulele

  • D-Bm-G-A (X2)
    
       D                            Bm
    Y hoy quiero brindar por esa mujer,
               G                          A
    que me engaño y me pago con una traición
    
    Y hoy quiero tomar por ese querer,
    por esa mujer, hoy me emborrachare,
    bendito alcohol
    
    Que se pare quien no ha llorado, por un amor,
    quien no ha tomado una copa de alcohol, por desilusión,
    bendito alcohol
    
                Bm                      F#m                    |
    Bendito alcohol ayúdame quiero olvidar a esa mujer,        |
                 G                         A                   |
    ella es muy mala ya lo sé, me hizo sufrir                  |
                                                               |
    
  •    D          Bm           G         A
    e-----2--2----------------------------------------------------------------
    b----3-3--3-----3--3------2--2------2--2----------------------------------
    g---2---2------4-4--4----0-0--0----2-2--2---------------------------------
    d--o----------4---4-----0---0-----2---2-----------------------------------
    a------------2---------2---------0----------------------------------------
    e-------------------------------------------------------------------------
    
    luego comienza esto y la segunda claro rasgando
       D           Bm                 G               A
    e---------------------------------10-10-9-9-7-7---10-10-9-9-7-7/9----------
    b-10-8-7---7-7----7--------------------------------------------------------
    g---------------9-----9-7--------------------------------------------------
    d--------------------------------------------------------------------------
    
    Y luego va la cancion:
    
    
      D                            Bm
    Y hoy quiero brindar por esa mujer,
    
  • +
    ¡Colabora con nosotros!
    Envíanos tu versión de esta canción

Letra de Bendito Alcohol
Y hoy quiero brindar por esa mujer,
que me engaño y me pago con una traición
Y hoy quiero tomar por ese querer,
por esa mujer, hoy me emborrachare,
bendito alcohol
Que se pare quien no ha llorado, por un amor,
quien no ha tomado una copa de alcohol, por desilusión,
bendito alcohol
Bendito alcohol ayúdame quiero olvidar a esa mujer, |
ella es muy mala ya lo sé, me hizo sufrir |
|
Tarde o temprano ella vera que mi amor no encontrara | PRECORO
lo buscara en otro querer y llorara |
Y llorara y sufrirá | CORO [X2]
porque un amor como el mío no lo va encontrar jamás, jamás |
Y quiero que me expliques por qué te fuiste asi
Por que me abandonaste y te alejaste de mi
Si lo unico que hice, fue quererte
Y si hoy te vas, adelante, buena suerte
Bendito alcohol
Que se pare quien no ha llorado, por un amor,
quien no ha tomado una copa de alcohol, por desilusión,
bendito alcohol (x2)
PRECORO
Que se pare quien no ha llorado, por un amor,
quien no ha tomado una copa de alcohol, por desilusión,
bendito alcohol

Video de Bendito Alcohol
[]




[Bendito Alcohol chords][Bendito Alcohol cifra]
© LaCuerda.net · aviso legal · privacidad · es · en · pt · contacto