Acordes de Guitarra » A »Alex Campos » Que eres para mi (Tab)

Que eres para mi
Alex Campos

Letras, Acordes y Tabs para Guitarra, Bajo y Ukulele

  •    Am       F       C          G
    |----------1--------------------3-------|
    |-0------------------3------------------|
    |---------------------------------------|
    |---2--------2---------0---------0------|
    |-----0-1------0-1-------0-1-------0-1--|
    |---------------------------------------|
    
    Acá se toca de la misma manera que el intro
    Riff 1 
    Am                 F
    No encuentro donde ir 
    C                      G
    si tu no estas junto a mi
    Am                   F
    no encuentro la salida
    C                   G
    sin ti mi vida agoniza
      Am               F
    no encuentro una voz 
    
  • SoLO D GuITArrA:
    
           Am  F           C          G
    :e:-----------12----------12--13--12--------------------:.
    :B:--------13----13-13s15------------13s15--15-15-15-15-:.
    :G:-12s14-----------------------------------------------:.
    :D:-----------------------------------------------------:.
    :A:-----------------------------------------------------:.
    :E:-----------------------------------------------------:.
         3      2  1  3  3     1   2   1  3      3  3  3  3
    
         Am                F                         C
    :e:-----------------------------------------------------:.
    :B:-----------------------15-15-15--17--15--17--18--17--:.
    :G:--14-16-16-16-17-17-17-------------------------------:.
    :D:-----------------------------------------------------:.
    :A:-----------------------------------------------------:.
    :E:-----------------------------------------------------:.
         1   2  2  2  3  3  3  1  1  1   2   1  2    2   1
    
    
  •   Am       F       C        G
    E---------------------------3----------
    A--0---------------3----------2--------
    D----2-----3---------2-----------------
    G------------2-------------------------
    B-----0-1------0-1------0-1-----0-1----
    e--------------------------------------
    
    Verso 1:
    Lo que esta abajo es el bajeo y la guitarra hace el
    punteo que esta arriba...al mismo tiempo..
    
    Am                 F  C                     G
    No encuentro donde ir Si tu no estas junto a mi
    E------------------1------------------------3---
    A--0------0----------------3------3-------------
    D-----------------------------------------------
    G-----------------------------------------------
    
    Am                   F  C                   G
    
  •   |    Am   |    F    |    C    |    G    |
    e)|---------|---------|---------|---------|
    B)|-----0-1-|-----0-1-|-----0-1-|-----0-1-|
    G)|---2-----|---2-----|---0-----|---0-----| X 2 veces
    D)|---------|-3-------|---------|---------|
    A)|-0-------|---------|-3-------|---------|
    E)|---------|---------|---------|-3-------|
    
          Am           F      C                  G
    No encuentro donde ir si tú no estas junto a mí
      |    Am   |    F    |    C    |    G    |
    e)|---------|---------|---------|---------|
    B)|-----0-1-|-----0-1-|-----0-1-|-----0-1-|
    G)|---2-----|---2-----|---0-----|---0-----|
    D)|---------|-3-------|---------|---------|
    A)|-0-------|---------|-3-------|---------|
    E)|---------|---------|---------|-3-------|
    
         Am            F        C              G
    No encuentro la salidas sin ti mi vida agoniza
    
  • 			BENDICIONES AQUI LES VA EL BAJO
    AUNQUE UNO QUE OTRO ERROR ES POSIBLE
    
    
    Intro A, F, C, G,
    
    
    
    	No encuentro a donde ir si tu no estas junto a mi no encuentro
    
    E  /--------------------------1------------------------3---------------------
    A  /------------0-------------------3----------------------------0-----------
    D  /-------------------------------------------------------------------------
    G  /-------------------------------------------------------------------------
    
    
    
    	la salida sin ti mi vida agoniza no encuentro una voz que hable
    
    E  /----------1---------------------3----------------------1-----------------
    A  /-------------------3------------------------0------------------3---------
    D  /-------------------------------------------------------------------------
    G /--------------------------------------------------------------------------
    
    
    
    	a mi vida no encuentro unas manos que sanen mis heridas
    
    E  /----------3-----------------------1-------------------
  • Ojalá y les guste
    
    Dios les bendiga!!!
    
    
    Que eres para mi?
    
    
    Intro: //Am F C G//
    
    (Esto va en cada renglón de la estrofa)
    G)|----------------|
    D)|----------------|
    A)|--0-------3-----|
    E)|-----1-1----3-3-|
    
          Am           F     C                    G
    No encuentro donde ir si tú no estas junto a mí
         Am            F        C              G
    No encuentro la salidas sin ti mi vida agoniza
          Am          F      C           G
    No encuentro una voz que hable a mi vida
          Am           F         C           G
    No encuentro unas manos que sanen mis heridas
    
    
    Coro
           A5         F5 C5         G5
    Aunque yo pienso que tú no existías
    
      |     Am    |        F        |
    G)|-----------|-----------------|
    D)|-----------|-----------------|
    A)|---------3-|---------2h3-2h3-|
    E)|-5-5-4-5---|-1-1-0-1---------|
      |      C      |    G   |
    G)|-------------|--------|
    D)|---------2h3-|5-3-2---|
    A)|-3-3-2-3-----|------5-|
    E)|-------------|--------|
    
            A5       F5 C5        G5
    Vengo a ti a
  • E  /------------5----x--------1---x--------------------3-
    A  /--------------------------------------3---x----------
    D  /-----------------------------------------------------
    G  /-----------------------------------------------------
    
         La salida sin ti mi vida agoniza no encuentro una voz que hable
    
    E  /------------5----x--------1---x--------------------3-
    A  /--------------------------------------3---x----------
    D  /-----------------------------------------------------
    G  /-----------------------------------------------------
    
         A mi vida no encuentro unas manos que sanen mis heridas
    
    E  /------------5----x--------1---x--------------------3----------8/0-
    A  /--------------------------------------3---x-----------------------
    D  /------------------------------------------------------------------
    G  /------------------------------------------------------------------
    
    
    
  • +
    ¡Colabora con nosotros!
    Envíanos tu versión de esta canción
  • Tutorial
    Que eres para mi tutorial con guitarra acustica
    6:16

Letra de Que eres para mi
Acá se toca de la misma manera que el intro
Riff 1
No encuentro donde ir
si tu no estas junto a mi
no encuentro la salida
sin ti mi vida agoniza
no encuentro una voz
que hable a mi vida
no encuentro unas manos
que sanen mis heridas
Aunque yo pienso que
Tu no existías
Vengo a ti a buscar
Aquella salida
Se muy bien o no lo se
Que eres para mi
Una voz, religión
O solo teoría
No lo se
Riff 2
Religión se que es
Esa monotonía
Que el amor es aquel
Que dio así su vida
Aquí estoy, otra vez
Con todas mis heridas
Que al igual son tus heridas.
Riff 3 (con el mismo ritmo del coro
Ven y entra a mi vida
Llena mi corazón
No mas lagrimas mentiras
Cansado de eso yo estoy
(un poco mas lento)
Con un toque tuyo a mi vida
Todo cambiará
Apresúrate a salvarme
Mi Señor mi salvador, mi salvador
luego se rasguean los siguientes acordes con cejilla antes de
entrar al solo de Guitarra: Am-F-C-G
Dios no necesita músicos sino Adoradores en espíritu y en
verdad. DIOS LOS BENDIGA
Mónica no te imaginas todo lo que TE AMO. ED




[Que eres para mi chords][Que eres para mi cifra]
© LaCuerda.net · aviso legal · privacidad · es · en · pt · contacto