Acordes de Guitarra » A »Alex Campos » El sonido del silencio (Tab)

El sonido del silencio
Alex Campos

Letras, Acordes y Tabs para Guitarra, Bajo y Ukulele

  • Gm                                             F
    El sonido del silencio el que no quiero escuchar
                                           D#
    Es aquella noche fria la que quiero evitar
                                                 Bb
    De sentirme descubierto cuando el sol me quemara.
    
    Gm                                            F
    Para que seguir riendo cuando siento que no esta
                                                  D#
    Para que quiero los mares si mi barco se hundira
                                                Bb
    Para que seguir viviendo si a lo lejos tu estas.
    
    Gm                                                 F
    Que las fuerzas se me agotan mi alma esta por comenzar
                                           D#
    Otro dia en silencio el que acaba de pasar
                                              Bb
    Pasa y pasan los minutos en mi oscura soledad.
    
  • E-|-----------------------------------------------------------------
    B-|--------0------------0------------0-----------0------------0-----
    G-|------0---0--------0---0--------0---0-------0---0--------0---0---
    D-|----7-------0----7------0-----7------0----7------0-----7------0--
    A-|-10-----------10-----------10----------10-----------10-----------
    E-|-----------------------------------------------------------------
    
    Canción
    
     EL sonido del  silencio del que no  quiero     escuchar
    E-|-----------------------------------------------------------------
    B-|---------0-------------0-------------0-------------4-------------
    G-|------0----0--------0----0--------0----0--------5-----5----------
    D-|----7--------0----7--------0----7--------0----7---------7--------
    A-|-10------------10-------------10------------8--------------------
    E-|-----------------------------------------------------------------
    
        es aquella noche fría la que   quiero    evitar  del sentirme
    E-|------------------------------------------------------------------
    B-|-------4----------4-------------4--------------4-------------4----
    
  • E|--------------------|--------------------|--------------------|
    B|-----------0--------|-----------0--------|-----------0--------|
    G|--------0-----0-----|--------0-----0-----|--------0-----0-----|
    D|-----4-----------4--|-----4-----------4--|-----4-----------4--|
    A|--7-----------------|--7-----------------|--7-----------------|
    E|--------------------|--------------------|--------------------|
    
    
    --------------------|--------------------|--------------------|
    -----------0--------|-----------0--------|-----------0--------|
    --------0-----0-----|--------0-----0-----|--------0-----0-----|
    -----4-----------4--|-----4-----------4--|-----4-----------4--|
    --7-----------------|--7-----------------|--7-----------------|
    --------------------|--------------------|--------------------|
                                              1ra estrofa:
    
                                               Em
    --------------------|--------------------|--------------------|
    -----------0--------|-----------0--------|-----------0--------|
    --------0-----0-----|--------0-----0-----|--------0-----0-----|
    
  • +
    ¡Colabora con nosotros!
    Envíanos tu versión de esta canción

Letra de El sonido del silencio
El sonido del silencio el que no quiero escuchar
Es aquella noche fria la que quiero evitar
De sentirme descubierto cuando el sol me quemara.
Para que seguir riendo cuando siento que no esta
Para que quiero los mares si mi barco se hundira
Para que seguir viviendo si a lo lejos tu estas.
Que las fuerzas se me agotan mi alma esta por comenzar
Otro dia en silencio el que acaba de pasar
Pasa y pasan los minutos en mi oscura soledad.
Soledad que se alimenta del silencio de tu boca
Esa boca que sonrie pronunciando asi mi nombre
aquel nombre que me diste diciendo que si mi amor
Es mi amor que en ti espera y que siempre esperara
Es tu amor que me condena a esta eterna libertad
Que aunque pasen mil silencios pronto se que me hablaras
El sonido del silencio donde se que escucharas
El susurro de mi canto y el grito de mi llamar
El llamado de mi alma pidiendo tu libertad
Yo quiero seguir riendo aunque el llanto aquí esta
Aunque el barco se me hunda se que yo podre nadar
La corriente de este rio a tu amor me llevara
Tu eres mi fortaleza mi escudo y mi lanza
Eres todo lo que tengo cuando siento que no estas
Eres tu mi compania en esta oscura soledad.
Vuelve,vuelve el momento
De escucharte en tu silencio//.




[El sonido del silencio chords][El sonido del silencio cifra]
© LaCuerda.net · aviso legal · privacidad · es · en · pt · contacto