Acordes de Guitarra » A »Alex Campos » Como el color de la sangre (Tab)

Como el color de la sangre
Alex Campos

Letras, Notas, Punteos, Tablaturas y Acordes de Guitarra (Tabs & Chords)

  • Letra y Acordes
    Intro: Bm   D   A   E (2 vecves)
    
    
    
    e -----------------|--------------|---------------|-------------
    B --4s6-4-3--------|-4s6-4-3---3--|---------------|-------------
    G ----------3s5-3--|---------3----|--3-5-5s7-5----|--3s5-3------
    D -----------------|--------------|---------------|--------3s5-3
    A -----------------|--------------|---------------|-------------
    E -----------------|--------------|---------------|-------------
    
    
    A                            F#m
      Si acaso ya no vuelves tal vez
    D                           E
      Recuerda lo que te dije ayer
    A                        F#m
      Tus ojos yo nunca olvidare
    D                          E
      Cuando de niño yo te forme
    
  • Letra y Acordes
    Intro:Gm D# A# F
    
    e----------------------------------------
    B--6-4-3-----6-4-3---3-----3-------------
    G--------5-3-------3---3-5---5--3-2-------x2
    D-----------------------------------5-3---
    A----------------------------------------
    E----------------------------------------
    
    A#                         Gm  D#                          F
    Si acaso ya no vuelves tal vez ,  recuerda lo que te dije ayer.
    A#                   Gm    D#                A#       F
    Tus ojos yo nunca olvidare,   cuando de niño yo te forme.
    Cm                     A# D#  Gm                          F
    Cuando A LA luna yo te lleve,    de la tormenta yo te cuide.
    
                             Coro
    
    Gm                    D#                A#
    Aunque lejos te ayas ido y se apague tu amor, mi amor
    
  • Tablatura
    Aadd2            Capotraste
    ---|-----|-----|-----||
    ---|-----|-----|-----||
    ---|-----|--O--|-----||
    ---|-----|--O--|-----||
    ---|-----|-----|-----||
    ---|-----|-----|-----||
    
    ***Capotraste tercer traste***
    
    Intro:  Am  C  G  D
    
        Am          C              G             D
    e -----------------|--------------|---------------|-------------
    B --1s3-1-0--------|-1s3-1-0---0--|---------------|-------------
    G ----------0s2-0--|---------0----|--0-2-2s4-2----|--0s1-0------   x2
    D -----------------|--------------|---------------|--------1s2-0
    A -----------------|--------------|---------------|-------------
    E -----------------|--------------|---------------|-------------
    
    
  • Tablatura
    Intro: Cm   D#   A#   F (2 vecves)
    
    
    
    e -----------------|--------------|---------------|-------------
    B --4s6-4-3--------|-4s6-4-3---3--|---------------|-------------
    G ----------3s5-3--|---------3----|--3-5-5s7-5----|--3s5-3------
    D -----------------|--------------|---------------|--------3s5-3
    A -----------------|--------------|---------------|-------------
    E -----------------|--------------|---------------|-------------
    
    
    A#                            Gm
      Si acaso ya no vuelves tal vez
    D#                Gm         F
      Recuerda lo que te dije ayer
    A#                        Gm
      Tus ojos yo nunca olvidare
    D#               Gm        F
      Cuando de niño yo te forme
    
  • Tablatura
    Aadd2
    ---|-----|-----|-----||
    ---|-----|-----|-----||
    ---|-----|--1--|-----||
    ---|-----|--2--|-----||
    ---|-----|-----|-----||
    ---|-----|-----|-----||
    
    ***Capotraste tercer traste***
    
    Intro:  Am  C  G  D
    
        Am          C              G             D
    e -----------------|--------------|---------------|-----------------
    B --4s6-4-3--------|-4s6-4-3---3--|---------------|-----------------
    G ----------5s4----|---------3----|--4-6-4s4-3--3-|--3s5-7-5--------x2
    D -----------------|--------------|-----------3---|---------1-2-1---
    A -----------------|--------------|---------------|--------------5-3
    E -----------------|--------------|---------------|-----------------
    
    
  • Piano (Teclados)
    Intro: Cm   D#   A#   F (X2)
    
    A#                            Gm
      Si acaso ya no vuelves tal vez
    D#                Gm         F
      Recuerda lo que te dije ayer
    A#                        Gm
      Tus ojos yo nunca olvidare
    D#               Gm        F
      Cuando de niño yo te forme
    Cm                        A#   D#
      Cuando a la luna yo te lle --ve
    Gm                           F
      Y en la tormenta yo te cuide.
    
    “Coro”
    Gm                      D#                   A#
      Aunque lejos te hayas ido, y se apague tu amor
                          F                     Gm
    Mi amor siempre incansable, luchara a tu favor
                        D#                            A#
    Y si niegas mi existencia o lo que yo siento por vos
                        F                          Gm
    El lucero de este cielo te dirá que aquí estoy yo
                          D#                      A#
    Te dirá que soy tan cierto como lo es tu corazón
                         F
    Como el color de la sangre.
    
    A#                            Gm
    
  • +
    ¡Colabora con nosotros!
    Envíanos tu versión de esta canción
  • Tutorial
    Como tocar la canción completa de Como el color de la sangre
    6:33
  • Tutorial
    youtube como tocar como el color de la sangre de alex campos en guitarra
    4:59
  • Tutorial
    como tocar la cancion alex campos como el color de la sangre
    2:47

Letra de Como el color de la sangre
Si acaso ya no vuelves tal vez
Recuerda lo que te dije ayer
Tus ojos yo nunca olvidare
Cuando de niño yo te forme
Cuando a la luna yo te lle --ve
Y en la tormenta yo te cuide.
“Coro”
Aunque lejos te hayas ido, y se apague tu amor
Mi amor siempre incansable, luchara a tu favor
Y si niegas mi existencia o lo que yo siento por vos
El lucero de este cielo te dirá que aquí estoy yo
Te dirá que soy tan cierto como lo es tu corazón
Como el color de la sangre.
Si acaso ya no vuelves tal ves
Te olvides que siempre yo te ame
Mi vida yo por ti entregue
Fue por este amor que calle.
El reino de mi padre de -- je
Y en busca de tu amor yo zarpe.
No hay que temer, te cuidare, ahí estaré
Vuélvete a mí, te esperare…
Coro>
Aunque lejos te hayas ido, y se apague tu amor
Mi amor siempre incansable, luchara a tu favor
Y si niegas mi existencia o lo que yo siento por vos
El lucero de este cielo te dirá que aquí estoy yo
Te dirá que soy tan cierto como lo es tu corazón
Como el color de la sangre que por ti se derramo.
Como el amor de aquel padre que a su hijo entrego
Como lo es esta canción, que en silencio canto yo.



© LaCuerda.net · Aviso Legal · Privacidad