Acordes de Guitarra » A »Aleks Syntek » Para Ti (Tab)

Para Ti
Aleks Syntek

Letras, Acordes y Tabs para Guitarra, Bajo y Ukulele

  •    Cm7      Gm      G#      Fm7
    e---3-------3-------4-------1----------
    B---4-------3-------4-------1----------
    G---3-------3-------5-------1----------
    D---5-------5-------6-------1----------
    A---3-------5-------6-------3----------
    E---3-------3-------4-------1----------
    
    [requinto de guitarra elctrica]  
    
     ---------------------------------
     --------------6------------------
     ------8-8-5-5----8~~-5~~---------
     --8-8----------------------------
     ---------------------------------
     ---------------------------------
    
    
       Cm7     Gm     G#     Fm
    
    
  • +
    ¡Colabora con nosotros!
    Envíanos tu versión de esta canción

Letra de Para Ti
[requinto de guitarra elctrica]
Para ti, mi amor es para ti
llena mi vida y para ti tengo mas
para ti, mi amor es para ti
vete conmigo y deja el mundo detras [2x]
[pausa]
[mismos acordes]
eres mia, luz del dia
hoy mi vida en tus manos esta
venidando, respirando
llevo el alma hasta donde tu estas
/ / / / / / / / / / / / / / / /
en mi interior tu corazon puede llenarlo todo por completo
Para ti, mi amor es para ti
llena mi vida y para ti tengo mas
para ti, mi amor es para ti
vete conmigo y deja el mundo detras
[verso]
todo el tiempo yo te siento
por el aire tu me haces volar
y te quiero para siempre
moriria si tu ya no estas
/ / / / / / / / / / / / / / / /
en mi interior tu corazon puede llenarlo todo por completo
Para ti, mi amor es para ti
llena mi vida y para ti tengo mas
para ti, mi amor es para ti
vete conmigo y deja el mundo detras
[break]

[se repite]
Para ti, mi amor es para ti
llena mi vida y para ti tengo mas
para ti, mi amor es para ti
vete conmigo y deja el mundo detras
Para ti, mi amor es para ti.




[Para Ti chords][Para Ti cifra]
© LaCuerda.net · aviso legal · privacidad · es · en · pt · contacto
DINAMICO