Acordes de Guitarra » A »Alejandro Sanz » Toca para mi (Tab)

Toca para mi
Alejandro Sanz

Letras, Acordes y Tabs para Guitarra, Bajo y Ukulele

  • Intro: C  F  Bb  C  F  Bb
    
    e--------------8----5--------------------| 
    B---5---6---8----8-----8---6---5------5--|                    ######################
    G---------------------------------7------|                    ### por Andre Choi ###
    D----------------------------------------|                    ######################
    A----------------------------------------|
    E----------------------------------------|
    
    
    e------------------8-----5---------------------|
    B---5--6--5--6--8-----8-----8---6---5----------|
    G--------------------------------------7--5----|
    D----------------------------------------------|
    A----------------------------------------------|
    E----------------------------------------------|
    
    
    C         G               Am             Em                 F                           G   
       Como cada tarde estaba,   en el parque para tocar su viejo y cansado instrumento.
    
  • D         A          Bm                         
    Como cada tarde esta en el parque para tocar
    G                               A
    Su viejo y cansado instrumento  uuuu
    D           A             Bm     
    En el mismo banco sentado levanta el suelo a su lado
    G                               D
    Dispuesto a dar el lado bueno y aunque ya se venga a menos
    G                     A      
    Le regala una balada solo por una mirada
    D            A             Bm         
    De sus años de experiencia mil anecdotas me cuenta
    G                       D
    Yo finjo creerle asi me gusta verle feliz
    G                     A
    Contando aventuras y creyendo ser un violin
    
    Coro:
    D        A         Bm 
    Toca    para mi   yo te quiero oir
    
  • G  C  D7 [x2]
    
    
    G
      Como cada tarde está 
    Em
      en el parque para tocar
           C             Am           D7
      su viejo y cansado instrumento
    
    G
      En el mismo banco sentado
    Em
      una manta en el suelo a su lado
           C                           Am
      dispuesto a dar el lado bueno y aungue ya se venga a menos
    C                       D7
      me regala una balada sólo por una mirada 
    
    G 
    
  • C  F  G7 [x2]
                           |- - Fill*- -|
    e|---------------------------12-10-12------3-8-3-5-3-------------
    B|--5--1--3----5--1--3-----------------5-6-----------6-5-3-3/5---
    G|--5--2--3----5--2--3--8-10-------------------------------------
    D|--5--3--5----5--3--5-------------------------------------------
    A|---------------------------------------------------------------
    E|---------------------------------------------------------------
    
    e|--------3-8-3-5-3----------
    B|---5-6------------6-5-3----
    G|------------------------5--
    D|---------------------------
    A|---------------------------
    E|---------------------------
    
    C                  Em
      Como cada tarde está 
    Am                  Em
      en el parque para tocar
    
  • +
    ¡Colabora con nosotros!
    Envíanos tu versión de esta canción

Letra de Toca para mi
Como cada tarde estaba, en el parque para tocar su viejo y cansado instrumento.
En el mismo banco sentado, una manta en el suelo a su lado, dispuesto a dar el lado
bueno y aunque ya se venga menos me regala una balada solo por una mirada
De sus anios de experiencia y de anecdotas me cuenta yo finjo creerle asi me gusta
verlo feliz contando aventuras y creyendo ser un piolin
toca para mi, yo te quiero oir.
quiero forma parte de tu locura pondremos nuestras almas de partitura
toca para mi, yo te quiero oir.
y que el ultimo latido de tu corazon, sea la rosa que brota de la ultima nota.
Hay gente que rie al verle con su pajarita verde sus pantalones ya roidos y unas
flores que ha cojido adornando una camisa que ha cosido muy deprisa.
El loco maestro toca con una dulcura loca y se posa una paloma en sus sapatos de goma
nadie rie nadie habla los que de ti se burlaban.
Se va recostando y habla de lo dura que es la tabla que ha dejado de finjir no quiero
verle sufrir contando aventuras y creyendose un piolin
toca para mi, yo te quiero oir
quiero forma parte de tu locura pondremos nuestras almas de partitura
toca para mi, yo te quiero oir
y que el ultimo latido de tu corazon sea la rosa que brota de la ultima nota.
toca para mi, yo te quiero oir
toca para mi, yo te quiero oir
y que el ultimo latido de tu corazon sea la rosa que brota de la ultima nota.
Ending: C F Bb, C F Bb
# ICQ: 39885942
# Son todos acordes muy simples. Dudas? Sugerencias? escribeme a kd3u@hotmail.com
# Alejandro Sanz, MTV Unplugged 2001 por Andre Choi.




[Toca para mi chords][Toca para mi cifra]
© LaCuerda.net · aviso legal · privacidad · es · en · pt · contacto
DINAMICO