Acordes de Guitarra » A »Alejandro Lerner » Amarte así (Tab)

Amarte así
Alejandro Lerner

Letras, Notas, Punteos, Tablaturas y Acordes de Guitarra (Tabs & Chords)

  • Letra y Acordes
                   DO  LAm/FA#                    MIm
           Amarte así,        es vivir un sueño eterno junto a tí
    
       MI°7                    REm          FA          SOL           DO 
           es confiarle al universo este milagro de sentir,  amarte así
    
       SOL          DO  LAm/FA#                  MIm             
           Amarte así,       entregándome al destino que elegí    
       
       MI°7                   REm             FA           SOL           DO   
           y que es ese mi camino y yo en el tuyo y compartir, amarte  así
    
     MI4LAmMI7   LAm  Lam(M7)       LAm7 LAm/FA#      REm7 
              así,        hasta morir         ni la eternidad me alcanza
    
                  FA              SOL           DO       LAm/FA#  REm7   
           para agradecer que hoy puedo amarte así  [hooo..]
    
       SOL         DO  LAm/FA#                    MIm         
           Amarte así,       es sentir que el infinito late en mí
    
  • Letra y Acordes
            DO             DOmaj(-5)      REm7    
    |-----------------|-----------------|-------|---------|
    |-------------5---|-------------5---|-6-6---|-6-5-3-1-|
    |-----5---7-------|-----5---7-------|-5-----|---------|    
    |---5---5---5---5-|---4---4---4---4-|-7---7-|-7-5-4-2-|  
    |-3---------------|-3---------------|-5-----|---------|    
    |-----------------|-----------------|-5-----|---------|    
           
    FA SOL
    
                   DO   DOmaj(-5)
           Amarte así,        
                               MIm7
           es vivir un sueño eterno junto a tí
       DO7         LA LA7      REm          
           es confiarle al universo este 
             REm/DO     REm/SI
           milagro de sentir, 
       FA          DO
           amarte así.
    
  • Letra y Acordes
    DO LAm/FA# REm/FA SOL7sus4 SOL7
    
    
            DO LAm/FA#             MIm
    Amarte así, es vivir un sueño eterno junto a tí
    MIm7b5  LA          REm        REm/DO    SOL/SI SOL7sus4 SOL7 DO
    es confiarle al universo este milagro de sentir,   amarte  así
    
            DO LAm/FA#             MIm
    Amarte así, entregándome al destino que elegí
    MIm7b5   LA        REm             REm/DO      SOL/SI SOL7sus4 SOL7 DO
    y que estes en mi camino y yo en el tuyo y compartir,  amarte    así
    
    
    MIsus4 MI7 LAm LAm/SOL#  LAm7/SOL LAm/FA#   REm7                 SOL7sus4
              así,       hasta morir     hasta el fondo de mi alma amarte asi
    MIsus4 MI7 LAm LAm/SOL#  LAm7/SOL LAm/FA# REm7
               así,      hasta morir     ni la eternidad me alcanza
            SOL7sus4        SOL7         DO
    para agradecer que hoy puedo amarte así
    
  • Letra y Acordes
        C   Cmaj(-5)
    Amarte así,
                       Em              Gm Csus9
    es vivir un sueño eterno junto a ti,
                         Dm
    es confiarle al universo
          Dm/C          G G6        C   G6  G
    este milagro de sentir, amarte así.
    
        C   Cmaj(-5)
    Amarte así,
                       Em            Gm Csus9
    entregándome al destino que elegí,
                         Dm
    y que estés en mi camino
              Dm/C           G G6        C Dm9 E7
    y yo en el tuyo y compartir, amarte así.
    
    CORO 1
       Am  Am/G#
    
  • Tablatura
             DO LAm/FLAm MIm MI°7  REm  FA  SOL MI4 MI7 LAm Lam(M7) REm7 SOL#
          |-------------------3----1---1----3-----------------------1-----4---|
          |--1-----1----------3----3---1----3-----------1-----1-----1-----4---|
          |--0-----2----------3----2---2--------2---1---2-----1-----2-----5---|
          |--2-----2-----2----2--------3--------2-------2-----2-----------6---|
          |--3-----------2-------------3----2---2---2---------------------6---|
          |----------------------------1----3-----------------------------4---|
    
    Intro
             DO            DO          DO        REm7         SOL
    |---------------0-------------0----------1--0--------------------|
    |----1----1---3----1----1---3-----1--1---------3--1--------------|
    |-----------0-------------0-------0--0---------------0---0--0----|
    |------2-------------2-----------------------------------0--0----|
    |----3-------------3--------------3--3---------------------------|
    |--------------------------------------------------------3--3----|
    
    Verso 1
    
        SOL        DO             LAm               MIm
    
  • Piano (Teclados)
    Aquí esta la melodía de una de la canciones mas conocidas y 
    bellas de Lerner , hay va para todos lo enamorados
    
    MD = Mano Derecha
    MI = Mano Izquierda
    
    EJ = do-1 una octava abajo de la central
         do-2 dos octavas abajo de la central
         do   en la octava central
    
    
    MD     sol-1/do/sol-1/re  /sol-1/mi
    MI do-1               do-1      do-1
    
    
    MD      fa#-1/do/fa#-1/re /fa#-1/mi
    MI do-1                do-1      do-1
    
    
    MD                          fa  /mi  /re  /do  /do   /
    MI fa-2/la-2/do-1/fa-1/do-1/fa-2/la-2/do-1/fa-1/sol-2/
  • +
    ¡Colabora con nosotros!
    Envíanos tu versión de esta canción

Letra de Amarte así
Amarte así, es vivir un sueño eterno junto a tí
es confiarle al universo este milagro de sentir, amarte así
Amarte así, entregándome al destino que elegí

y que es ese mi camino y yo en el tuyo y compartir, amarte así
así, hasta morir ni la eternidad me alcanza
para agradecer que hoy puedo amarte así [hooo..]
Amarte así, es sentir que el infinito late en mí
y es testigo de este amor inmenso amor que siento para tí, amarte así

Asi, hasta morir hasta el fin de la esperanza amarte así
Así, hasta morir ni la eternidad alcanza
para agradecer que hoy puedo amarte
hasta fundirme en este amor, hasta llenarme el corazón, amarte así
[Oh] (Oh) [Oh] Amarte así amarte así.






IV traste



© LaCuerda.net · Aviso Legal · Privacidad