Acordes de Guitarra » A »Alejandro Fernandez » Promesa (Tab)

Promesa
Alejandro Fernandez

Letras, Acordes y Tabs para Guitarra, Bajo y Ukulele

  • Intro   A  C#m  F#m  B7  Bm7  D  G#dim           G#dim     X10110
    
    A                   C#m
    Quisiera pedirle a Dios,
    D      E        A
    una extensión, de mi vida,
    Bm     E           A        F#m
    para siempre estar contigo,
          B7           Bm7   E
    y amarte toda la vida.
    
    PRE
    A                C#m     C#m  Cm  Bm
    Yo soy un pobre mendigo,
          E        A
    y a Dios tengo de testigo,
    Bm  E             A
    y de rodillas le pido,
    F#m     B7        Bm7      E
    que tu amor esté conmigo.
    
  • esta canciOn se escucha bien, me gusto el requinto
    no creo que tenga errores de lo contrario e-mail me
    __    
      \   
    _  e||------------------------------------------------------------------------
    _) B||---------------9--9/12--10h12--9--10--9---------------------------------
       G||--9--8--9--11----------------------------9--11--10--11--12--13----------
    _  D||----------------------------------------------------------------11--11--
    _) A||------------------------------------------------------------------------
       E||------------------------------------------------------------------------
    __/  
    
    
    __    
      \   
    _  e||--------------------------------------------------------
    _) B||-----14--12--12h14--10--10--9--9------------------------
       G||----------------------------------11--11--9--9----------
    _  D||--11--------------------------------------------13--12--
    _) A||--------------------------------------------------------
       E||----------------------------------------------
  •                                                     G#dim     X10110
    Riff 1
                 Amaj7                  C#m
    e----------4-5/7-5---4h5p4---------------------|
    B-5p4-5-7-----------------5--7-5-7-8-9---------|
    G---------------------------------------6-6----|
    D----------------------------------------------|
    A----------------------------------------------|
    E----------------------------------------------|
    
            F#m          B7  Bm7               D   G#dim
    e-----9-77-55------------------------------------0------|
    B--------------99-77-55-4-3---------3--5-5/7-----1------|
    G--6------------------------------2--------------1------|
    D-----------------------------2/4----------------0------|
    A------------------------------------------------1------|
    E-------------------------------------------------------|
    
    
    SOLO  (1:59)  Riff 2
    
  • +
    ¡Colabora con nosotros!
    Envíanos tu versión de esta canción

Letra de Promesa
Quisiera pedirle a Dios,
una extensión, de mi vida,
para siempre estar contigo,
y amarte toda la vida.
PRE
Yo soy un pobre mendigo,
y a Dios tengo de testigo,
y de rodillas le pido,
que tu amor esté conmigo.
Nunca pude imaginar,
lo que tú eres para mí,
en mi vida eres el sol,
que ilumina mi existir.
Hoy te hago una promesa,
y te la voy a cumplir,
de tu vida soy esclavo,
Repetir 1ª. Estrofa
...toda la vida.
PRE
FINAL
Le pido a Dios,
una extensión de mi vida,
para adorarte,
y amarte mientras yo viva,
esa es mi promesa,
y la voy a cumplir.




[Promesa chords][Promesa cifra]
© LaCuerda.net · aviso legal · privacidad · es · en · pt · contacto