Acordes de Guitarra » A »Alejandra Guzmán » Hacer el amor con otro (Tab)

Hacer el amor con otro
Alejandra Guzmán

Letras, Notas, Punteos, Tablaturas y Acordes de Guitarra (Tabs & Chords)

  • Letra y Acordes
          C   G    C
    Amanecer   con el
    
    A mi costado no es igual
                G
    Estar contigo
                   Dm
    No es que este mal
    F        G
      Ni hablar
            Dm   F
    Pero le falta  madurar
                  G
    Es casi un niño
    
                C  G    C
    Blanco como el   yogurt
    
    Sin ese toro que tú llevas
              G
    
  • Letra y Acordes
        B
    Amanecer con el 
        
    a mi costado no es igual
      FA#
    estar contigo
              C#m
    No es que este mal 
     FA#
    ni hablar 
          C#m
    pero le falta madurar 
           F#
    es casi un niño
    
    
      B                      
    Banco como el yogurth
    
    sin ese toro que tu llevas
    
  • Letra y Acordes
         B       F#         B
    Amanecer con él a mi costado no es igual
              F#             C#m    B       F#
    estar contigo, No es que esté mal ni hablar
              C#m      B               F#
    pero le falta madurar es casi un niño
    
            B   F#   B
    Banco como el yogurth sin ese toro que tu llevas
           F#            C#m  B    F#
    en el pecho, fragilidad   de flor
              C#m        B            F#
    nada que ver con mi perverso favorito
    
        E             F#          B
    Sin tus uñas arañandome la espalda
            G#m             C#m7     F#
    sin tus manos que me estrujan todo cambia
        E              F#           B
    sin tu lengua envenenando mi garganta
    
  • Letra y Acordes
    |--------7h9-9-9-9/7-7-7/4-4/2----2----
    |--------7h9-9-9-9/7-7-7/4-4/2----4----
    |-----------------------------4---4----
    |------------------------------4--4----
    |---------------------------------2----
    |-7-------------------------------2----
    
    
    |-----------
    |-----------
    |-----------
    |-----------
    |----------
    |---2-5-7---
    
    |--------7h9-9-9-9/7-7-7/4-4/2----2----
    |--------7h9-9-9-9/7-7-7/4-4/2----4----
    |-----------------------------4---4----
    |------------------------------4--4----
    |---------------------------------2----
    
  • Letra y Acordes
    ECHO EN UN SEMITONO BAJO ESPERO QUE LE GUSTE:EXEQUIEL RUIZ
    
         DO SOL    DO
    Amanecer - con el
            DO
    a mi costado no es igual
               SOL
    estar contigo
                   REm REm/DO
    No es que este mal
         SOL
    ni hablar
            REm          REm/DO
    pero le falta madurar
                 SOL
    es casi un niño
    
    
                DO SOL DO
    Blanco como el  - yogurth
    
  • Letra y Acordes
    e |----|--7s9--9-9-9s7--7-7-7s4--4s2--2-------2--|
    B |----|--7s9--9-9-9s7--7-7-7s4--4s2--2-------4--|
    G |----|---------------------------------4-1-----|
    D |----|-----------------------------------------|
    A |-2--|-----------------------------------------|
    E |----|------------------------------4----------|
    
    
    e |--------|--7s9--9-9-9s7--7-7-7s4--4s2-------------|
    B |--------|--7s9--9-9-9s7--7-7-7s4--4s2--2-------4--|
    G |--------|---------------------------------4-1--4--|
    D |--------|-----------------------------------------|
    A |---1-2--|-----------------------------------------|
    E |-4------|------------------------------4----------|
    
    
          B (Bb)     B
    Amanecer    con el
    
    A mi costado no es igual
    
  • Tablatura
    |----------7h9-9-9-9p7-7-7\4-4-4-4-------2----
    |----------7---7-7-7---7-7\4-4-4-4-------4----
    |----------------------------------4-----4----
    |------------------------------------4---4----
    |----------------------------------------2----
    |---7------------------------------------2----
    
    
    |-----------
    |-----------
    |-----------LUEGO SE REPITE DE NUEVO LA PRIMERA PARTE
    |-----------
    |-----0-----
    |---2---7---
    
    ESTA ES LA PARTE DONDE EMPIEZA A CANTAR...
    
    |------------|-------0---X--|-----------2--|-------0---
    |-------4----|-------4---4--|-------0------|----------0
    |---------4--|-----4-----4--|---------1----|-----1----1
    |-----4------|---4-------4--|-----2--------|---2------2
    |---2--------|-2---------2--|---2----------|-2---------
    |------------|-----------2--|--------------|-----------
    
    
    |------1-----|-------0------|------0------0|-------0-----2
    |------------|--------------|--------------|-------------4
    |------------|-----0--------|----1---------|---1-----1/4-4
    |----3---
  • +
    ¡Colabora con nosotros!
    Envíanos tu versión de esta canción

Letra de Hacer el amor con otro
Amanecer con el
A mi costado no es igual
Estar contigo
No es que este mal
Ni hablar
Pero le falta madurar
Es casi un niño
Blanco como el yogurt
Sin ese toro que tú llevas
En el pecho
Fragilidad de flor
Nada que ver
Favorito
Sin tus uñas
Arañándome la espalda
Sin tus manos
Que me estrujan
Todo cambia
Sin tu lengua envenenando
Mi garganta
Sin tus dientes que torturan
Y endulzan yo no siento nada.
Hacer el amor con otro
No no no
No es la misma cosa
No hay estrellas de color rosa
No destilan los poros
Del cuerpo
Ambrosia salpicada
De te quieros.
Quise olvidarte con el
Quise vengar todas
Tus infidelidades
Y me salió tan mal
Que hasta me cuesta
Respirar tu mismo aire
Los mechones de tu pelo
Negro crespo
Tus caderas afiladas
Y escurridas
Esa barba que raspa como lija
Y tu risa retorcida
Son los mejor que hay
En mi vida



© LaCuerda.net · Aviso Legal · Privacidad