Letra y Acordes de Alejandra Guzmán: Hacer el amor con otro
Conexión · Inscripción
Letras y Acordes
Pantalla Completa
Imprimir
Versión Texto
Añadir Favorito
Otras Versiones

Mostrar Diagramas
Desfile Automático
Manipular Acordes
Formato del Texto


Hacer el amor con otro

Alejandra Guzmán

calidad:
aguz0047
AUTOR: Gian Pietro Felisatti, José Vaca Flores
ALBUM: Flor De Papel
Enviado por rodrigo
INTRO:

e |----|--7s9--9-9-9s7--7-7-7s4--4s2--2-------2--|
B |----|--7s9--9-9-9s7--7-7-7s4--4s2--2-------4--|
G |----|---------------------------------4-1-----|
D |----|-----------------------------------------|
A |-2--|-----------------------------------------|
E |----|------------------------------4----------|


e |--------|--7s9--9-9-9s7--7-7-7s4--4s2-------------|
B |--------|--7s9--9-9-9s7--7-7-7s4--4s2--2-------4--|
G |--------|---------------------------------4-1--4--|
D |--------|-----------------------------------------|
A |---1-2--|-----------------------------------------|
E |-4------|------------------------------4----------|


B (Bb) B Amanecer con el A mi costado no es igual
F# Estar contigo
C#m - B No es que este mal
F# Ni hablar
C#m (B) Pero le falta madurar
F# Es casi un niño
B (Bb) B Blanco como el yogurth Sin ese toro que tú llevas
F# En el pecho
C#m B F# Fragilidad de flor
C#m Nada que ver
B Con mi perverso
F# Favorito
E Sin tus uñas
F# B Arañándome la espalda
G#m Sin tus manos
C#m Que me estrujan
F# Todo cambia
E F# Sin tu lengua envenenando
B Mi garganta
C# Sin tus dientes que torturan
F# Y endulzan yo no siento nada.
F#7 B Hacer el amor con otro
F# No no no
E No es la misma cosa
B F# No hay estrellas de color rosa
G#m No respiran los poros
D#m Del cuerpo
E Ambrosia salpicada
B - F# De te quieros.
F#7 B Hacer el amor con otro
F# No no no
E Es como no hacer nada
B F# Manda fuego en la mirada
G#m Falta dar el alma
D#m En cada beso
E Y sentir que puedes
B - F# Alcanzar el cielo
B (Bb) B Quise olvidarte con el Quise vengar todas
F# Tus infidelidades
C#m - B F# Y me salió tan mal
C#m Que hasta me cuesta
B F# Respirar tu mismo aire
E F# Los mechones de tu pelo
B Negro crespo
G#m C#m Tus caderas afiladas
F# Y escurridas
E F# B Esa barba que raspa como lija
C# Y tu risa retorcida
F# Son lo mejor que hay En mi vida
F#7 B Hacer el amor con otro
F# No no no
E No es la misma cosa
B F# No hay estrellas de color rosa
G#m No respiran los poros
D#m Del cuerpo
E Ambrosia salpicada
B - F# De te quieros.
F#7 B Hacer el amor con otro
F# No no no
E Es como no hacer nada
B F# Manda fuego en la mirada
G#m Falta dar el alma
D#m En cada beso
E Y sentir que puedes
B - F# - B Alcanzar el cielo
Este fichero es trabajo propio de su transcriptor y representa su interpretación personal de la canción. El material contenido en esta página es
para exclusivo uso privado, por lo que se prohibe su reproducción o retransmisión, así como su uso para fines comerciales.

© LaCuerda.net · Aviso Legal · Privacidad