Acordes de Guitarra » A »Alejandra Guzmán » Eternamente bella (Tab)

Eternamente bella
Alejandra Guzmán

Letras, Acordes y Tabs para Guitarra, Bajo y Ukulele

  • INTRO: DO SOL  DO SOL SOL9 FA SOL
    DO                                  SOL
    Quisiera que me dijeras una y otra ves
    
    te quiero baby te quiero
                       (LAm SIm DO SIm LAm)x2
    y siempre te querre
    
    con esa lengua extrangera
                            SOL SOL9 (FA)x4 SOL
    que me ablanda las piernas
    DO
    Que tienes boca de azucar
               SOL
    eso ya lo se
    
    que besas con quemaduras
                    (LAm SIm DO SIm LAm)x2
    de veneno y miel
    
    
  • e|-----------------------------------------------------
    B|-----------------------------------------------------
    G|-----------------------------------------------------
    A|--3-3-3-3-3-----------3-3-3-3-3----------------------
    D|--5-5-5-5-5-3-3-3-3-3-5-5-5-5-5-3-3-3-3-3-1-1-1-1-1-3
    E|------------5-5-5-5-5-----------5-5-5-5-5-1-1-1-1-1-5
    
    e|---------------------------------------------------------------
    B|---------------------------------------------------------------
    G|---------------------------------------------------------------
    A|--3-3-3-3-3----------------------------------------------------
    D|--5-5-5-5-5-3-3-3-3-3-4-4-4-4-4-5-5-5-5-5-3-3-3-3-3-1-1-1-1-1-3
    E|------------5-5-5-5-5-5-5-5-5-5-7-7-7-7-7-5-5-5-5-5-3-3-3-3-3-5
    
    e|-------------------------------------------------------------------------
    B|-------------------------------------------------------------------------
    G|-------------------------------------------------------------------------
    A|--3-3-3-3-3--------------------------------------------------------------
    D|--5-5-5-5-5-3-3-3-3-3-4-4-4-4-4-5-5-5-5-5-3-3-3-3-3-1-1-1-1-1-1-1-1-1-1-3
    E|------------5-5-5-5-5-5-5-5-5-5-7-7-7-7-7-5-5-5-5-5-3-3-3-3-3-3-3-3-3-3-5
    
  •                     <----   -->
    			  C
    con e--sa len-gua ex-tran-je-ra
    do  do do do  do  do do   do sol
    			  <-----
    		     G
    que mea blan-dan las pier-nas.
    mi  mi  mi   re  do  re   si
    
    
    
    C					 G
    Que tie-nes bo-ca dea zu-car e--so ya lo sé
    do  do  do  do do do  do sol mi mi re do re
    
    		      Dm9			  Am
    que be-sas con que-ma-du-ras de ve-ne-noy miel
    re  re re  re  re  re re sol fa fa mi re  do  
                          <---  -->
    				  C			   G
    
  • +
    ¡Colabora con nosotros!
    Envíanos tu versión de esta canción

Letra de Eternamente bella
Quisiera que me dijeras una y otra ves
te quiero baby te quiero
y siempre te querre
con esa lengua extrangera
que me ablanda las piernas
Que tienes boca de azucar
eso ya lo se
que besas con quemaduras
de veneno y miel
que me has cambiado no hay duda
lo se tambien y me gusta
Por eso voy a ser, por ti, por ti, por ti
eternamente bella, bella
con un hechizo de gitana
sere la princesa encantada
que te amara por siempre
desesperadamente, desesperadamente
Eternamente bella, bella
y en plena noche de la iguana
hago un hechizo de gitana
para que sigas siempre
desesperadamente enamorado de mi
Dispara ya estas dispuesto
a morir por mi
por que ten vendes tan caro
dime ya que si
tras esos lentes tan negros
que demonios piensas
Asi es la ruleta rusa
echale valor
de que te sirven las dudas
has igual que yo
si encuentro algo que gusta
lo tomo y no me lo pienso
Desde hoy prometo ser por ti, por ti, por ti
SE REPITE EL CORO




[Eternamente bella chords][Eternamente bella cifra]
© LaCuerda.net · aviso legal · privacidad · es · en · pt · contacto