Acordes de Guitarra » A »Airbag » Buscándote (Tab)

Buscándote
Airbag

Letras, Acordes y Tabs para Guitarra, Bajo y Ukulele

  • D                  A
     Salí a la calle buscándote
    G              D
     Y solo encontré
           Bm             G             D
     Un camino equivocado, me voy a perder
    D             A        G                D
     Una mirada, una señal quisiera que me des
          Bm
     Una forma de atraparte
    G             D
     Un beso tal vez
    G                A                     D
     Nunca te supe mirar, nunca te supe mentir
               Bm
     Porque te amo
    G        A                       D
     Solo serás todo lo que vive en mí
                   Bm
     Porque te extraño
    
  • INTRO E A
    
        E5                  B5   E5 B5  A5         E5
         Salí A LA calle buscándote   y solo encontré
    E-------------------------------------------------------------
    B-------------------------------------------------------------
    G---9---9---9---9-------------9-----------------9-9--11^9-----
    D---9---9---9---9-------9-----9--9---7-7--------9-9------11/--
    A---7---7---7---7-------9-----7--9---7-7----------------------
    E-----------------------7--------7---5-5----------------------
          F#5              A5     B5      E5    A5   E5   A5
     Un camino equivocado, me voy a perder    (como intro)
    E---------------------------------------------------------
    B---------------------------------------------------------
    G-----------------------2-----4--------------2---------2--
    D------4----------------2-----4--------2-2---2---2-2---2--
    A------4----------------0-----2--------2-2---0---2-2---0--
    E------2-------------------------------0-0-------0-0------
    
       E5            B5    E5 B5    A5           E5
    
  • +
    ¡Colabora con nosotros!
    Envíanos tu versión de esta canción

Letra de Buscándote
Salí a la calle buscándote
Y solo encontré
Un camino equivocado, me voy a perder
Una mirada, una señal quisiera que me des
Una forma de atraparte
Un beso tal vez
Nunca te supe mirar, nunca te supe mentir
Porque te amo
Porque te extraño
Y te encontré luego en ese bar
Estabas junto a él
Mis amigos se rieron, nada pude hacer
Cuando te fuiste y amaneció, mi estado era anormal
Te seguí por esa calle oscura y sin final
Nunca te supe mirar, nunca te supe mentir
Porque te amo
Porque te extraño
Nunca te supe mirar, nunca te supe mentir
Porque te amo
Porque te extraño
Nunca te supe mirar, nunca te supe mentir
Porque te amo
Porque te extraño.




[Buscándote chords][Buscándote cifra]
© LaCuerda.net · aviso legal · privacidad · es · en · pt · contacto