Tablatura para Bajo de Airbag: Amor de verano
Conexión · Inscripción
Letras y Acordes
Pantalla Completa
Imprimir
Versión Texto
Añadir Favorito
Otras Versiones

Mostrar Diagramas
Desfile Automático
Formato del Texto


Amor de verano(BAJ)

Airbag

calidad:
airb0155
AUTOR: Patricio & Gaston Sardelli
ALBUM: Blanco y Negro (2006)
Enviado por Juan
Transcripción por: Juan Pablo Hernández
e-mail: jp_hdzarenal@hotmail.com

Saludos a toda la raza de Torreón. Iba a tocar esta canción con mi banda y
no encontré una buena versión de tab de bajo, asi que me tomé la libertad
de transcribirla yo mismo. Tienen que escuchar muy detenidamente la
canción para sacar los pequeños detalles. Votenele.


Afinación: Normal

Verso 1
G|-----------------------------------------------------------------------|
D|-----------------------------------------------------------------------|
A|--6-5-3--------------------------66-66-66-6-5-33-33-33-3---------------|
E|---------4-6/2-6/2-6-6/18-1818/6-------------------------6-44-44-44-44-|
    ‘todo empezó...’              ‘y de repente...’

G|-----------------------------------------------------------------------|
D|-----------------------------------------------------------------------|
A|-----------------------------------------------------------------------|
E|--6/2-6/2-6-6/18-1818/6------------------------------------------------|
    ‘ya no quiero...’

Coro 1
G|-----------------------------------------------------------------------|
D|-----------------------------------------------------------------------|
A|--6---6-5-3-3-1-------------6-6-5-3-3----------------------------------|
E|----6-----------4-4-4-6-6-6-----------6-4-4-4-6-6-6-8-6-8~-8-6-8-10----|
    ‘si solo eso fue...’      ‘si solo eso fue...’

Verso 2
G|-----------------------------------------------------------------------|
D|-----------------------------------------------------------------------|
A|--66-66-66-6-5-33-3-33-3-33-3------------------------------------------|
E|------------------------------6-44-44-44-44-6/2-6/2-6-666--------------|
    ‘ya no me sigas...’

G|-----------------------------------------------------------------------|
D|-----------------------------------------------------------------------|
A|--66-66-66---6-5-33-33-33-3--------------------------------------------|
E|-----------6----------------6-44-44-44-44-6/2-6/2-6-6/18-1818/6--------|
    ‘y de repente...’

Coro 2
G|-----------------------------------------------------------------------|
D|--------------------------------------------3-------5------------------|
A|--------3-3---------------6-6-5-3-3-----3-6-----5-8--------------------|
E|--0-0-6-----6-4-4-4-6-6-6-----------6-4-------6-------8-6-8~-8-6-8-10--|
    ‘si solo eso fue...’    ‘si solo eso fue...’

Solo
G|-----------------------------------------------------------------------|
D|-----------------------------------------------------------------------|
A|-6-6---6~---6---6-5-3-3---3~---3---3-----------------------------------|
E|-----6----6---6---------3----3---3---6—4—4-0-4~-0-4-0-4-4--------------|

G|-----------------------------------------------------------------------|
D|-----------------------------------------------------------------------|
A|-----------------------------------------------------------------------|
E|--6/2-6/2-6-6/18 1818/6------------------------------------------------|

Verso 3
G|-----------------------------------------------------------------------|
D|-----------------------------------------------------------------------|
A|--6~-3~/5/6/10-11~-----------------------------------------------------|
E|-------------------6/2-6/2-6-6/18 1818/6-------------------------------|

Coro 3
G|----------5-5-3--------------------------------------------------------|
D|--------8-------6-6-6-8------------------------------------------------|
A|------6-----------------6---6-5-3-3------------------------------------|
E|--0-6---------------------6---------6-4-4-4-6-6-6----------------------|

     Aquí sube un tono
G|-----------------------------------------------------------------------|
D|------------------------5--------7----(toca esto dos veces)------------|
A|--8---8-7-5---5-----5-8-----7-10---------------------------------------|
E|----8-------5---8-6-------8--------------------------------------------|

G|-----------------------------------------------------------------------|
D|------------------------5--------7-------------------------------------|
A|--8---8-7-5-3-------5-8-----7-10---------------------------------------|
E|----8---------6-5-6-------8--------------------------------------------|

G|-----------------------------------------------------------------------|
D|-----------------------------------------------------------------------|
A|--8---8-7-5-5-------------------(esto se repite hasta el final)--------|
E|----8---------8-6-6-6-8-8-8--------------------------------------------|


| /  slide
| ~  deja que suene
Este fichero es trabajo propio de su transcriptor y representa su interpretación personal de la canción. El material contenido en esta página es
para exclusivo uso privado, por lo que se prohibe su reproducción o retransmisión, así como su uso para fines comerciales.

© LaCuerda.net · Aviso Legal · Privacidad