Acordes de Guitarra » A »Abel Pintos » Peregrinos (Tab)

Peregrinos
Abel Pintos

Letras, Acordes y Tabs para Guitarra, Bajo y Ukulele

  • Cm                  G#
    Sin pensarlo, sin dudarlo
          A#            Cm
    no tardo un minuto mas
                       G#
    Dejo lagrimas a un lado
           A#          Cm7
    y arrancando su dolor
         G#          Gm
    Escribí una despedida,
            G#           A#
    rego un beso en el papel
             Cm7
    Mientras no pueda ayudarlos
         G#     A#   Cm
    padre ya no volveré
    
    Buscare por cielo, tierra
    y andaré sin descansar
    Cargare con mi mochila
    
  •    Cm                        %
    G|-------------------------|-------------------------|
    D|-------------------------|-------------------------|
    A|-------------------------|-------------------------|
    E|-------------------------|---------------------3---|
    B|-----1.--1-1-----1.--1-1-|-----1.--1-1---x-4-------|
    
       Cm                        %                      X3
    G|-------------------------|------------------------||
    D|-------------------------|-----------------------o||
    A|-------------------------|------------------------||
    E|-------------------------|---------------x-3-----o||
    B|-----1.--1-1-----1.--1-1-|-----1.--1-1---------4--||
    
       Cm                        %
    G|-------------------------|-------------------------|
    D|-------------------------|-------------------------|
    A|-------------------------|-------------------------|
    E|-------------------------|---------------------3---|
    B|-----1.--1-1-----1---1-1-|-----1.--1-1---x-4-------|
    
    
      11 compases de espera.
    
    
       Cm          Fm          
  • +
    ¡Colabora con nosotros!
    Envíanos tu versión de esta canción

Letra de Peregrinos
Sin pensarlo, sin dudarlo
no tardo un minuto mas
Dejo lagrimas a un lado
y arrancando su dolor
Escribí una despedida,
rego un beso en el papel
Mientras no pueda ayudarlos
padre ya no volveré
Buscare por cielo, tierra
y andaré sin descansar
Cargare con mi mochila
quiero mi oportunidad
Alguien me dará una mano
sin faltar a la verdad
Lograre una vida nueva
y pronto los vendré a buscar
Hallare por el camino
alguien como yo
Somos peregrinos
cruzando la inmensidad
Como planta por nacer
nuestro sueño busca el sol
Como un árbol quiere estar,
sin regarle las raíces no florecerá
Muerde el hambre a la inocencia
La conciencia viene y va
Las miradas se transforman
en paredes de cristal
Se desangra la esperanza
por no poder explicar
¿Que pecado cometimos
para no tener el pan?
Es la ley de mi destino
la que aquí se cumplirá
No se a donde va el camino
pero se de caminar
No me asustan las caídas,
nunca dejo de soñar
No se olvida a quien camina
y deja huellas al andar
Hallare por el camino
alguien como yo
Somos peregrinos
cruzando la inmensidad
Como planta por nacer
nuestro sueño busca el sol
Como un árbol quiere estar,
sin regarle las raíces no florecerá




[Peregrinos chords][Peregrinos cifra]
© LaCuerda.net · aviso legal · privacidad · es · en · pt · contacto