Acordes de Guitarra » A »Abel Pintos » La Llave (Tab)

La Llave
Abel Pintos

Letras, Acordes y Tabs para Guitarra, Bajo y Ukulele

  • D - A - A - E
    D - A - E
    
    A                  E
    La soledad se hace carne en mi
         D                  A     C#7
    y la noche parece un desierto
          F#m                B7
    pero llegas tú, con tu inmensa luz
            D                  E
    y te declaras dueña de mis sueños.
    
    A                    E
    El tiempo viste un color azul
        D                      A    C#7
    parecido a un suspiro del cielo,
          F#m             B7
    de solo saber, que te voy a ver
            D                 E         E7
    y a regalarte todos mis momentos.
    
  • LA                 MI 
     La soledad se hace carne en mi
          RE                  DO#7
     y la noche parece un desierto
          FA#m                 SI 
     pero llegas tu, con tu inmensa luz
            SIm          RE     MI 
     y te declaras dueña de mis sueños
    
    
     El tiempo viste un color azul
     parecido a un suspiro del cielo
     de solo saber, que te voy a ver
     y a regalarte todos mis momentos
    
               ESTRIBILLO
    
           LA                   MI 
     Vas a verme llegar, vas a oir mi canción
             RE                  LA 
    
  •   Asus2            C#sus2           F#m
    |-------------|  |-------------|  |-------------|
    |---------0---|  |---------4---|  |---------2---|
    |-----2-----2-|  |-----6-----6-|  |-----2-----2-|
    |---2---2-----|x4|---6---6-----|x4|---4---4-----|x2
    |-0-----------|  |-4-----------|  |-------------|
    |-------------|  |-------------|  |-2-----------|
    
      D                            E                E/A
    |-------------0h2p0------0-| |-------------|  |-------------------------|
    |-----3---3---------3------| |---------0---|  |-------------------------|
    |---2---2---2----------2---| |-----1-----1-|  |-----1---1---1---1---1---|
    |-0------------------------| |---2---2-----|x2|---2---2---2---2---2---2-|
    |--------------------------| |-------------|  |-0-----------------------|
    |--------------------------| |-0-----------|  |-------------------------|
    
      Asus2            C#sus2           F#m
    |-------------|  |-------------|  |-------------|
    |---------0---|  |---------4---|  |---------2---|
    |-----2-----2-|  |-----6-----6-|  |-----2-----2-|
    
  • +
    ¡Colabora con nosotros!
    Envíanos tu versión de esta canción
  • Tutorial
    HD
    Como tocar la llave de Abel Pintos en guitarra
    7:54
  • Tutorial
    Como tocar los acordes de la Canción "La llave" en Guitarra
    5:54
  • Tutorial
    HD
    Aprender a tocar el bajo eléctrico con canciones La LLave tutorial#4
    7:17

Letra de La Llave
La soledad se hace carne en mi
y la noche parece un desierto
pero llegas tú, con tu inmensa luz
y te declaras dueña de mis sueños.
El tiempo viste un color azul
parecido a un suspiro del cielo,
de solo saber, que te voy a ver
y a regalarte todos mis momentos.
vas a verme llegar, y vas a oír mi canción,
vas a entrar sin pedirme la llave,
la distancia y el tiempo no saben
la falta que le haces a mi corazón.
Interludio
La soledad se hace carne en mi
y la noche parece un desierto
pero llegas tú, con tu inmensa luz
y te declaras dueña de mis sueños.
El tiempo viste un color azul
parecido a un suspiro del cielo,
de solo saber, que te voy a ver
y a regalarte todos mis momentos.
Vas a verme llegar, vas a oír mi canción,
vas a entrar sin pedirme la llave,
la distancia y el tiempo no saben
la falta que le haces a mi corazón.
Porque puedo callar mis palabras
Y escucharte en el viento hablar
porque puedo soñar para verte
y tenerte aún sin soñar.
vas a verme llegar, vas a oír mi canción,
vas a entrar sin pedirme la llave,
la distancia y el tiempo no saben
la falta que le haces a mi corazón.
vas a verme llegar, vas a oír mi canción,
vas a entrar sin pedirme la llave,
la distancia y el tiempo no saben
la falta que le haces a mi……………………. corazón.
Esta es nuestra primer transcripción
y hemos elegido a Abel porque disfrutamos mucho
de su música.
Pato y Gastón - Río Cuarto, Córdoba.




[La Llave chords][La Llave cifra]
© LaCuerda.net · aviso legal · privacidad · es · en · pt · contacto