Tablatura para Bajo de Abel Pintos: Peregrinos
Conexión · Inscripción
Letras y Acordes
Pantalla Completa
Imprimir
Versión Texto
Añadir Favorito
Otras Versiones

Mostrar Diagramas
Desfile Automático
Formato del Texto


Peregrinos(BAJ)

Abel Pintos

calidad:
apin0682
AUTOR: Abel Pintos
ALBUM: Reevolución (2010)
Enviado por Nicolas
   Cm                        %
G|-------------------------|-------------------------|
D|-------------------------|-------------------------|
A|-------------------------|-------------------------|
E|-------------------------|---------------------3---|
B|-----1.--1-1-----1.--1-1-|-----1.--1-1---x-4-------|

   Cm                        %                      X3
G|-------------------------|------------------------||
D|-------------------------|-----------------------o||
A|-------------------------|------------------------||
E|-------------------------|---------------x-3-----o||
B|-----1.--1-1-----1.--1-1-|-----1.--1-1---------4--||

   Cm                        %
G|-------------------------|-------------------------|
D|-------------------------|-------------------------|
A|-------------------------|-------------------------|
E|-------------------------|---------------------3---|
B|-----1.--1-1-----1---1-1-|-----1.--1-1---x-4-------|


  11 compases de espera.


   Cm          Fm            Gm          Cm
G||------------------------|------------------------||
D||o-----------------------|-----------------------o||
A||----3.--3-3-------------|-----------------3.--3-3||
E||o---------------1.--1-1-|-----3.--3-3-----------o||
B||------------------------|------------------------||

   Fm          Gm            Fm          Gm
G|-------------------------|-------------------------|
D|-------------------------|-------------------------|
A|-------------------------|-------------------------|
E|-----1.--1-1-----3.--3-3-|-----1.--1-1-----3.--3-3-|
B|-------------------------|-------------------------|

   Ab                        Gm          Cm
G|-------------------------|-------------------------|
D|---------------6---------|-------------------------|
A|---------3-3-----6---3---|-----5---------3-----3---|
E|-----4-----------------4-|-3-------3-------3-------|
B|-------------------------|-------------------------|

   Ab                        Gm          Cm
G|-------------------------|-------------------------|
D|---------------6---------|---------------------5---|
A|-----3---6-------6---3---|---------5-----x-6-------|
E|-4---------------------4-|-3---6-------------------|
B|-------------------------|-------------------------|

   Ab                        Fm          G
G|-------------8-----------|-------5-------7---------|
D|/5------/8-----8-5-------|-3-6-5-----------5-------|
A|-----6---------------6---|-------------------------|
E|-------------------------|-------------------------|
B|-------------------------|-------------------------|

   Cm    Gm/Eb Ab            Ab          Eb
G|-------------------------|-------------------------|
D|-------------------------|---6---------------------|
A|-3---------------3---6---|---------3-3-------------|
E|-------6-----4-----------|-----4-------------------|
B|-------------------------|-----------------4---4-4-|

   Fm          Eb7/Db        %
G|-------------------------|-------------------------|
D|-------------------------|-------------------------|
A|-------------4-----------|-(4)---------------------|
E|-----1---1-1-------------|-------------------------|
B|-------------------------|-------------------------|

   Ab    Gm    Cm
G|-------------------------|
D|-------------------------|
A|-------------------------|
E|-4-----3-----------------|
B|-------------1-----------|


  4 compases de espera.


   Cm          Abmaj7        Gsus4       Cm
G||--------17--------------|---------17-------------||
D||o---17------------------|-----17----------------o||
A||15----------------------|-------------15---------||
E||o-----------16----------|-15--------------------o||
B||------------------------|------------------------||

   Abmaj7      Gm7           Abmaj7      Gm7
G|----*12---------*12------|----*12---------*12------|
D|-------------------------|-------------------------|
A|-11----------10----------|-11----------10----------|
E|-------------------------|-------------------------|
B|-------------------------|-------------------------|

   Abmaj7                    Bb/F
G|------------17-20--------|----------15-|
D|---------17--------------|-------12----|
A|------15-----------------|-------------|
E|---16--------------------|---13--------|
B|-------------------------|-------------|

   Cm                        %
G|-------------------------|-------------------------|
D|-------------------------|-------------------------|
A|-------------------------|-------------------------|
E|-------------------------|---------------------3---|
B|-----1.--1-1-----1.--1-1-|-----1.--1-1---x-4-------|

   Cm                        %
G|-------------------------|-------------|
D|-------------------------|-------------|
A|-------------------------|-------------|
E|-------------------------|-------------|
B|-----1.--1-1-----1.--1-1-|-----1.--1-1-|

   Cm          Fm            Gm          Cm
G|-------------------------|-------------------------|
D|-------------------------|-------------------------|
A|-------------------------|-----------------3.--3-3-|
E|-----------------1.--1-1-|-----3.--3-3-------------|
B|-----1.--1-1-------------|-------------------------|

   Cm           Fm            Gm          Cm
G|-------------------------|-------------------------|
D|-------------------------|-------------------------|
A|-----3.--3-3-------------|-----------------3.--3-3-|
E|-----------------1.--1-1-|-----3.--3-3-------------|
B|-------------------------|-------------------------|

   Fm          Gm            Fm          Gm
G|-------------------------|-------------------------|
D|-------------------------|-------------------------|
A|-------------------------|-------------------------|
E|-----1.--1-1-----3.--3-3-|-----1.--1-1-----3.--3-3-|
B|-------------------------|-------------------------|

   Ab                        Gm          Cm
G|-------------------------|-------------------------|
D|-------------------------|-------------------------|
A|---------------6-3-------|---------------3-----3---|
E|-----4---3-3---------4---|-----3---3-------3-------|
B|-------------------------|-------------------------|

   Ab                        Gm          Cm
G|-------------------------|-------------------------|
D|---------------6---------|---------------------5---|
A|-----3---6-------6---3---|---------5-----x-6-------|
E|-4---------------------4-|-3---6-------------------|
B|-------------------------|-------------------------|

   Ab                        Fm          G
G|-------------8-----------|-------5-------7---------|
D|/5------/8-----8-5-------|-3-6-5-----------5-------|
A|-----6---------------6---|-------------------------|
E|-------------------------|-------------------------|
B|-------------------------|-------------------------|

   Cm    Gm/Eb Ab            Ab          Eb
G|-------------------------|-------------------------|
D|-------------------------|-------------------------|
A|-3---------------3---6---|-----------------6---6-6-|
E|-------6-----4-----------|---x-----1---------------|
B|-------------------------|-----4-------------------|

   Fm          Eb7/Db        %
G|-------------------------|-------------------------|
D|-------------------------|-------------------------|
A|-3---------------3---6---|-----------------6---6-6-|
E|-------6-----4-----------|---x-----1---------------|
B|-------------------------|-----4-------------------|

   Ab    Gm    Cm
G|------------------------||
D|------------------------||
A|------------------------||
E|-4-----3----------------||
B|-------------1----------||


Leyenda:

 .: stacatto
 %: se repite el compás anterior
 /: slide ascendente
(): ligado
______________________________________________________
Cualquier duda dejo mi correo nico.bassoc@gmail.com
Este fichero es trabajo propio de su transcriptor y representa su interpretación personal de la canción. El material contenido en esta página es
para exclusivo uso privado, por lo que se prohibe su reproducción o retransmisión, así como su uso para fines comerciales.

© LaCuerda.net · Aviso Legal · Privacidad