Acordes de Guitarra » A »Abel Pintos » Bailando con tu sombra alelí (Tab)

Bailando con tu sombra alelí
Abel Pintos

Letras, Notas, Punteos, Tablaturas y Acordes de Guitarra (Tabs & Chords)

  • Letra y Acordes
    SIm                     LA
    Quien podrá quererte como yo te quiero, amor
     SOL                     RE
    Quien, pregunto quién, podrá quererte como yo
     SIm                     LA
    Siempre lo decías y me atabas a tu piel
     SOL                     RE
    Con ramos de besos y escuchábamos caer
    
    LA         SOL           RE
    Sobre los techos de zinc,
    LA         SOL           RE
    Lluvias de otoño en abril.
    
    
     FA#m                  SIm
    Tengo esa nostalgia de domingo por llover,
     FA#m                 SIm
    De guitarra rota, de oxidado carrusel
     SOL       RE     SOL     LA
    
  • Letra y Acordes
    Bm                        F#
    Quien podrá quererte como yo te quiero, amor
       G                             D
    Quien, pregunto quién, podrá quererte como yo
     Bm                      F#
    Siempre lo decías y me atabas a tu piel
     G                         D
    Con ramos de besos y escuchábamos caer
    
    A         G          D
    Sobre los techos de zinc,
    A            G         D
    Lluvias de otoño en abril.
    
    
     F#                       Bm
    Tengo esa nostalgia de domingo por llover,
     F#                      Bm
    De guitarra rota, de oxidado carrusel
     G       D     G     A
    
  • Tablatura
    B) -------------------------------------------------|
    G) ----9/11--11---11---9---9---7---7-7/9---6--------|
    D) -------------------------------------------------|
    A) -------------------------------------------------|
    E) -------------------------------------------------|
    
    ---------5------------------
    ----5/7------5/3-5-------3----
    --------------------2/4-------
    ------------------------------
    ------------------------------
    ------------------------------
    
    e) --------3/2-----------------------|
    B) -----3------5-3-5/7---7---7-------|
    G) --4-------------------------------|
    D) ----------------------------------|
    A) ----------------------------------|
    E) ----------------------------------|
    
    
  • +
    ¡Colabora con nosotros!
    Envíanos tu versión de esta canción

Letra de Bailando con tu sombra alelí
Quien podrá quererte como yo te quiero, amor
Quien, pregunto quién, podrá quererte como yo
Siempre lo decías y me atabas a tu piel
Con ramos de besos y escuchábamos caer
Sobre los techos de zinc,
Lluvias de otoño en abril.
Tengo esa nostalgia de domingo por llover,
De guitarra rota, de oxidado carrusel
Ay, Alelí... pobre de mí.
Yo te desnudaba para ver cómo era el mar,
Y el mar se enredaba a mis deseos de volar.
Íbamos tan lejos que olvidábamos volver
Nos traía el ángel ciego del amanecer
Y se acostaba a tus pies
Como una gatito siamés.
Tengo esa nostalgia de domingo por llover,
De guitarra rota, de oxidado carrusel
Ay, Alelí... pobre de mí.
Esta noche quiero que bailemos otra vez
La canción que el viento nos cantaba en el ayer.
Ya sabría el infierno cómo hacer para aceptar
Que baile en mi celda con tu sombra sin parar
Cómo he podido matar,
A quien me hacía soñar.
Tengo esa nostalgia de domingo por llover,
De guitarra rota, de oxidado carrusel
Ay, Alelí... pobre de mí.
es mi primera trascripcion !! la saque por mi papa Paxixo :D
!! asike un saludo a el !!!



© LaCuerda.net · Aviso Legal · Privacidad