Acordes de Guitarra » 0-9 »Los 50 de Joselito » La pata pela (Tab)

La pata pela
Los 50 de Joselito

  • Tablatura
    e----5-9-5-9-9s12-12-12-9-12-12-12-9-5-7---
    B---5--------------------------------------
    G--6---------------------------------------
    
    e------5-7-5-7-7s10-10-10-7-10-10-10-7-4-5--
    B-------------------------------------------
    G-5s7--------------------------------------- x2
    
    e--7s9-7s9-----9-12-9-12-7-6s7-6s7-----7-10-7-10----7s9-7s9-
    B------------10-----------------------9-----------10--------
    
    e---9-12-9-12-7-6s7-6s7---7-10-7-10------
    B-10--------------------9-----------10---
    A                                                 E
    Las muchachas de esta tierra viven con la pata pela
                                                A
    Se levantan tempranito y andan con la pata pela x2
                        E                          A
    Ahhhhy con la pata pela y brincan con la pata pela
                        E                          A
    
  • +
    ¡Colabora con nosotros!
    Envíanos tu versión de esta canción

Letra de La pata pela
Las muchachas de esta tierra viven con la pata pela
Se levantan tempranito y andan con la pata pela x2
Ahhhhy con la pata pela y brincan con la pata pela
Y gozan con la pata pela y bailan con la pata pela
Y si van a la cumbiamba van con la pata pela
Y si tan cogiendo chance están con la pata pela
Y si van a la parranda van con la pata pela
Y si toca joselito están con la pata pela
Ahhhhy con la pata pela y brincan con la pata pela
Y gozan con la pata pela y bailan con la pata pela
Y si están bebiendo yuca están con la pata pela
Y si están haciendo chicha están con la pata pela
Y si están en el fandango están con la pata pela
Y si están bailando cumbia están con la pata pela
Ahhhhy con la pata pela y brincan con la pata pela
Y bailan con la pata pela Y gozan con la pata pela
Y brincan con la pata pela Y bailan con la pata pela
Y gozan con la pata pela Y brincan con la pata pela
Y bailan con la pata pela Y gozan con la pata pela
Y brincan con la pata pela Y bailan con la pata pela
Eso es todo amigos. Cualquier cosa no duden en escribirme!



© LaCuerda.net · aviso legal · privacidad · contacto
DINAMICO