Acordes de Guitarra » 0-9 »Los 50 de Joselito » El pájaro amarillo (Tab)

El pájaro amarillo
Los 50 de Joselito

Letras, Acordes y Tabs para Guitarra, Bajo y Ukulele

  • REm                           5 RE
    E---10--10-10-10-10-10--------------------       
    B--10--------------------10-11-10-8-9-----
    G-10--------------------------------------
    D-----------------------------------------
    A-----------------------------------------
    E-----------------------------------------
    
                                        REm
    
    E---12--12-12-12-12-12----12-13-10-12-10---
    B--8---------------------------------------
    G-9----------------------------------------
    D------------------------------------------
    A------------------------------------------
    E------------------------------------------
    
    REPETIR DE NUEVO DESDE EL PRINCIPIO
    -------------------------------------------------------
    REm         SOLm
    
  • e-10-10-10-10-10--10---------------|-12-12-12-12-12--12-12--13----12----|
    B-10----------------10--11-10------|-14------------------------14----15-|
    G-10--------------------------12-9-|-12---------------------------------|
    D----------------------------------|------------------------------------|  x2
    A----------------------------------|------------------------------------|
    E----------------------------------|------------------------------------|
    
    
    e-1-3-5----6--6--6----8------6---
    B-3-5-6--8--8--8---10---10-8---8-
    G--------------------------------
    D--------------------------------
    A--------------------------------
    E--------------------------------
    
    e---5---5---5---6-----5-----3---3---3---5-----3----1-|
    B-6---6---6---8---8-6---6-5---5---5---6---6-5---5--3-|
    G----------------------------------------------------|
    D----------------------------------------------------| x2
    A----------------------------------------------------|
    
  • E-----10-10-10-10-10-10--------------------
    B--10--------------------10-11-10-8-10----
    G-10--------------------------------------
    D-----------------------------------------
    A-----------------------------------------
    E-----------------------------------------
    
    
    
    E-----12-12-12-12-12-12----12-13-10-12-10---
    B--8---------------------------------------
    G-9----------------------------------------
    D------------------------------------------
    A------------------------------------------
    E------------------------------------------
    
    
    TRANSICIÓN (x2)
    E-1--3--5----6---6---6---8---6------------
    B-3--5--6---8---8---8--10---8-------------
    
  • +
    ¡Colabora con nosotros!
    Envíanos tu versión de esta canción

Letra de El pájaro amarillo
REPETIR DE NUEVO DESDE EL PRINCIPIO
REPITE DE NUEVO ASI:

Por el juncal florido del riachuelo
viene volando un pajaro amarillo
Por el juncal florido del riachuelo
viene volando un pajaro amarillo
lleva lleva en su piquito el primer besito
que diste , que se perdio en la llanura
lleva lleva en su piquito el primer besito
que diste , que se perdio en la llanura
Paso volando y no ha cantao , por que lleva el pico apretao
pajarito resabio , suelte ese beso robao
Paso volando y no ha cantao , por que lleva el pico apretao
pajarito resabio , suelte ese beso robao
Por el juncal florido del riachuelo
viene volando un pajaro amarillo
Por el juncal florido del riachuelo
viene volando un pajaro amarillo
lleva lleva en su piquito el primer besito
que diste , que se perdio en la llanura
lleva lleva en su piquito el primer besito
que diste , que se perdio en la llanura
Paso volando y no ha cantao , por que lleva el pico apretao
pajarito resabio , suelte ese beso robao
Paso volando y no ha cantao , por que lleva el pico apretao
pajarito resabio , suelte ese beso robao
PUNTEO DE LA MITAS , ESTE ES EL SOLO :
Paso volando y no ha cantao , por que lleva el pico apretao
pajarito resabio , suelte ese beso robao
Paso volando y no ha cantao , por que lleva el pico apretao
pajarito resabio , suelte ese beso robao
el fin es un rasgueo es RE-..................RE- REm REm
TAN TA TA TAN




[El pájaro amarillo chords][El pájaro amarillo cifra]
© LaCuerda.net · aviso legal · privacidad · es · en · pt · contacto