Acordes de Guitarra » 0-9 »31 minutos » Tema Central Del Noticiero (Tab)

Tema Central Del Noticiero
31 minutos

Letras, Acordes y Tabs para Guitarra, Bajo y Ukulele

  • -----------------------------------------
    -----------------------------------------
    -9-10-9-13-9-10-9-13-9-10-9----9---------
    ----------------------------10-----------
    -----------------------------------------
    -----------------------------------------
    
    -------------------------------------
    -------------------------------------
    -9-10-9-13-9-10-9-13-9-10-9----------
    ----------------------------10/18/10-
    -------------------------------------
    -------------------------------------
    
    ---------------------------------------------------------------------------------
    ----------------------------------------------------------------12---------------
    -9-10-9-13-9-10-9-13-9-10-9----9-13-11-9-11-9----9----13-9-11-9----9-13-11-9-11-9
    ----------------------------10----------------10---10----------------------------
    ---------------------------------------------------------------------------------
    ---------------------------------------------------------------------------------
    
    Ahi 
  • ---0---1/2---0---1/2---0-----------0---1/2---0---1/2---0------6/7/2-
    -3---3-----3---3-----3---3-0-3---3---3-----3---3-----3---3-0--------
    --------------------------------------------------------------------
    --------------------------------------------------------------------
    --------------------------------------------------------------------
    --------------------------------------------------------------------
    
    ---0---1/2---0---1/2---0-------0/2-0---0---------0---2---0---5---2-0------0---------*-
    -3---3-----3---3-----3---3-0-3-------3---3-0---3---3---3---3---3-----3--3---3-------*-
    ------------------------------------------------------------------------------------*-
    ------------------------------------------------------------------------------------*-
    ------------------------------------------------------------------------------------*-
    ------------------------------------------------------------------------------------*-
    
    Aqui esta la primera parte.
    Esta la saque apoya
  •            RE              SIm              RE              SIm     
    E||---------------------------------|-------------------------------|
    B||---------------------------------|-------------------------------|
    G||---------------------------------|-------------------------------|
    D||--0-2-0-4-0-2-0-4-0-2-0---0------|--0-2-0-4-0-2-0-4-0-2-0--------|
    A||------------------------2--------|------------------------2------|
    E||---------------------------------|-------------------------------|
    
    
            RE             SIm                    RE          LA           SIm     
    ------------------------------------------|-----------------------------------||
    ------------------------------------------|-----------------------------------||
    ------------------------------------------|----------------2------------------||
    --0-2-0-4-0-2-0-4-0-2-0---0-4-2-0-2-0-2-0-|--0-2-0-4-0-2-0---0-4-2-0-0-2-0----||
    ------------------------2-----------------|-----------------------------------||
    ------------------------------------------|-----------------------------------||
    
    
       SIm            RE      SIm                    RE          SIm 
    ||----------------5-7-5---------|----------------5---------------|
    
  • e||---------------------------|-------------------|
    B||------------0-----------0--|-------------------|
    G||---0--2--0-----0--2--0-----|--0--2--0-----0----|
    D||---------------------------|-----------2-------|
    A||---------------------------|-------------------|
    E||---------------------------|-------------------|
    
    e||---------------------------|-------------------|
    B||------------0-----------0--|-------------------|
    G||---0--2--0-----0--2--0-----|--0--2--0----------|
    D||---------------------------|-----------2^------|
    A||---------------------------|-------------------|
    E||---------------------------|-------------------|
    
    e||---------------------------|-------------------|
    B||------------0-----------0--|-------------------|
    G||---0--2--0-----0--2--0-----|--0--2--0-----0----|
    D||---------------------------|-----------2-------|
    A||---------------------------|-------------------|
    E||---------------------------|-------------------|
    
    e||---------------------------|-------------------|
    B||------
  • ----------------------------------------------------
    -6-8-6-8h9h10--6-8-6-8h9h10--6-8-6-8h9h10--6-8------
    -----------------------------------------------7-7b-
    ----------------------------------------------------
    ----------------------------------------------------
    ----------------------------------------------------
    
    ----------------------------------------------------
    -6-8-6-8h9h10--6-8-6-8h9h10--6-8-6-8h9h10--6-8------
    -----------------------------------------------7/16/7
    ----------------------------------------------------
    ----------------------------------------------------
    ----------------------------------------------------
    
    ---------------------------------------------------------------
    -6-8-6-8h9h10--6-8-6-8h9h10--6-8-6-8h9h10--6-8--------6-8-6-8-6      
    ------------------------------------------------7--------------
    ---------------------------------------------------------------
    ---------------------------------------------------------------
    ----------------
  • +
    ¡Colabora con nosotros!
    Envíanos tu versión de esta canción






[Tema Central Del Noticiero chords][Tema Central Del Noticiero cifra]
© LaCuerda.net · aviso legal · privacidad · es · en · pt · contacto