Acordes de Guitarra » Z »Zurdok Movimiento » Hombre Sintetizador I (Tab)

Hombre Sintetizador I
Zurdok Movimiento

Letras, Notas, Punteos, Tablaturas y Acordes de Guitarra (Tabs & Chords)

  • Tablatura
    Esta cancion es dedicada a todos mis amigos como Marcos,
    Ana, Sarah y a todos los demas.
    
    
    Este es el Intro de la cancion que son acordes raros
    pero se escucha bien alguna sugerencia o errores
    porfavor escriban gracias!
    
    
    e--15--------------------------14-----------------------
    B---------17----17----17--------------12----12----12----
    G------16----16----16----16--------14----14----14----14-
    D--14--------------------------13-----------------------
    A-------------------------------------------------------
    e-------------------------------------------------------
    
    e--13-------------------------12-------------------------
    B--------12----12----12--------------13----13----13------
    G-----14----14----14----14--------12----12----12----12---
    D--12-------------------------10-------------------------
    A--------------------------------------------------------
    e--------------------------------------------------------
    
    e--10-----------------------11---------------------------
    B---
  • Tablatura
     E |-------------------------------------|------2-----------------|---------------------------|
     B |-----0-------0-------0---------1-----|----3--3-------4-----3--|---------------------------|
     G |---0---0---0---0---0---0---- 0---0---|--2------2---3---3--2-2-|--8-8-8--------------------|
     D |-2-------1-------0---------2-------2-|-0---------1-------0----|--------7-7-/-9------------|
     A |-------------------------3----------3|------------------------|--6-6-6--------------------|
     E |-------------------------------------|------------------------|--------5-5-/-7------------|
    
    
    Corus                                         (sonidito despues del corus)
    
     E |----------------------------------------|--3-2-------------------------|
     B |----------------------------------------|------4-0---------------------|
     G |----------------------------------------|-----------2-4----------------|
     D |--5-5-5/7-------5-5/-8-------2-2--5-5---|------------------------------|
     A |--3-3-3/5-5-5-5-3-3/-6-5-5-5-0-0--3-3-5-|------------------------------|
     E |----------3-3-3--------3-3-3----------3-|------------------------------|
    
    
    
     C   G   C  D#  G    A     C     G
    
  • Tablatura
    e|-0-0-0-0-2-2-2-3-0-0-0-0-|
    b|-1-1-1-1-3-3-3-3-0-0-0-0-|
    g|-0-0-0-0-2-2-2-2-0-0-0-0-|
    d|-------------------------|
    a|-------------------------|
    e|-------------------------|
    
    
     Llega el portavoz, canta con rubor
    
          G       D      C     Em
    e|----3-3----2-2----0-0----0-|
    b|----0-0----3-3----1-1----0-|
    g|---------------------------|
    d|---------0-----------------|
    a|-2--------------3------2---|
    e|---------------------------|
    
     
     Es un hombre sintetizador
    
  • +
    ¡Colabora con nosotros!
    Envíanos tu versión de esta canción

Letra de Hombre Sintetizador I
Llega el portavoz, canta con rubor

Es un hombre sintetizador

=Luego viene un verso igual al primero+
A veces puedo saber, esto es realidad
a veces puedo creer, esto es libertad
Pues eso es todo, les recomiendo que a la hora de los acordes jueguen con
las cuerdas, asi le dara un toque mas parecido a la original. Ok.
Ojala les guste y recuerden ¡el vege esta en la casa!

Cualquier duda y/o comentario no duden en mandarlo a:
vege@atame.org

[ver todas las canciones]


© LaCuerda.net · Aviso Legal · Privacidad