Acordes de Guitarra » Z »Zurdok Movimiento » El Tiempo Se Va (Tab)

El Tiempo Se Va
Zurdok Movimiento

  • Tablatura
    ----3------1--------------------------------1------------
    ----4--0---1----------------------------4-----4---4----0-
    ----5--0---2--0-------1--------3------3---3-----3---3--0-
    ----5--0---3--0-----1---1----0---0--1--------------------
    -----------3------2--------1-----------------------------
    ---------------------------------------------------------
       Cm      F      E?       A#       Eb       
    
    
    coros:
    distortion
    
    sali luego me regrese      casi me quedo so-lo
    --------------------------------------------------
    --------------------------------------------------
    --8-----8------6-------------------------3-/4-----
    --8-----8------6----6--/4\6--------------3-/4-----
    --6-----6------4----6--/4\6--------------1-/2-----
    --------------------4--/2\4-----------------------
    
    
  • Tablatura
    Son  dos guitarras
    la primera esta afinada normal
    la segunda en drop D(6ta cuerda en Re)
    
    *****Intro*****
    1º Guitarra(limpio)
    
    e---2-2-2-2---0-0-0-0---3-3---0-0---3-3-3-3----
    B---3-3-3-3---0-0-0-0---3-3---2-2---2-2-2-2----
    G---4-4-4-4---1-1-1-1---0-0---2-2---3-3-3-3----
    D---4-4-4-4---2-2-2-2---0-0---2-2---0-0-0-0----
    A---2-2-2-2---2-2-2-2---2-2---0-0--------------
    E-------------0-0-0-0---3-3--------------------
    
    2º Guitarra(distorcion)
    
    D---/5~--5--4--6~---5~---------------4---
    A------------------------4~---5/7~-------
    
    
    ******Verso******
    
    Eh pasado por tanto lugar...
    
    1º Guitarra(limpio)                           x2
    e---2-2-2-2---0-0-0-0---3-3---0-0---3-3-3-3---
    B---3-3-3-3---0-0-0-0---3-3---2-2---2-2-2-2---
    G---4-4-4-4---1-1-1-1---0-0---2-2---3-3-3-3---
    D---4-4-4-4---2-2-2-2---0-0---2-2---0-0-0-0---
    A---2-2-2-2---2-2-2-2---2-2---0-0-------------
    E-------------0-0-0-0---3-3-------------------
    
    2da guitarra apoya con punteo al azar de las mismas notas
  • Tablatura
         Bm           Em     G  A        D
    E-|--------------------------------------------|-
    B-|--------------------------------------------|-
    G-|--------------------------------------------|-
    D-|---------7--4-4/6~----5~--------------------|-
    A-|--/5~--------------------4~---4/7-7~---9~---|-
    D-|--------------------------------------------|-
    
    1er VERSO
       
    Guitarra 1
    
    Bm              Em
      He pasado por tanto lugar
        G     A    D
      difícil recordar
    Bm               Em
      Es lo mismo lo dije una vez
           G       A     D
      no importa a donde vas
    
  • +
    ¡Colabora con nosotros!
    Envíanos tu versión de esta canción

Letra de El Tiempo Se Va
coros:
distortion
sali luego me regrese casi me quedo so-lo
El tiempo se va me deja atras sigo corriendo
para esperar
fin coro(segunda parte):
para esperar
verso
coros
y termina asi la canción:
alguna duda,corrección o lo que sea echame un mail



© LaCuerda.net · aviso legal · privacidad · contacto