Acordes de Guitarra » Z »Zurdok Movimiento » Derrumbe del Desfile (Tab)

Derrumbe del Desfile
Zurdok Movimiento

  • Tablatura
    Muy importante: Afinacion de guitarra Dropped D
    Esto sinifica que la cuerda #6 esta afinada en Re
    
    
         Introducción
              D7
    e-----------------------------
    b-----------------------------
    g---5--------5----------------
    d-----4----4---4----4---------
    A--------5--------5-----------
    D-----------------------------
      D7                   D7                   D7               x2
    e--------------------------------------------------------------
    b--------------------------------------------------------------
    g-5--------------------5--------------------5------------------
    d-4-------------3p2----4-------------3p2----4------------------
    A-5-----------------5--5-----------------5--5------------------
    E-0--3-5-6b-5-3--------0--3-5-6b-5-3--------0--5-7-8-5-6-5-3---
    
    
    Estoy... divagando solo con mi ser
    e--------------3p1--------------------3p1------------------
    b------------------3----------------------3----------------
    g--5/-7---10/---------5---/5----7---10-------5-5-----
  • Tablatura
    Zurdok Movimento
    Antena:
    "Derrumbe del Desfile"
    Tabulada por KomKalabaza
    -------------------------
    
    coro
    
    e------------------
    b----------3-------
    g-----0-2----------
    D-0-3--------------
    A------------------
    E------------------
    
    Fill-in
    
    e-----------------
    b-----6--5--3-----
    g-----------------
    D-----------------
    A-----------------
    E-----------------
    
    ----------------
    Correcciones, comentarios, saludos, recetas, etc. 
    Envialas a: mriscariot@hotmail.com
    Si alguien sabe el email de zurdok mandenmelo.
  • +
    ¡Colabora con nosotros!
    Envíanos tu versión de esta canción





© LaCuerda.net · aviso legal · privacidad · contacto
DINAMICO