Acordes de Guitarra » Z »Zona 7 » Te Nececito (Tab)

Te Nececito
Zona 7

Letras, Notas, Punteos, Tablaturas y Acordes de Guitarra (Tabs & Chords)

  • Letra y Acordes
    Am
    Hice esta canción
               G                      Am
    Con el propósito de acercarme a ti
    
    Confieso que sin ti
        G 
    Nada soy
    
    F
    Te doy mi corazón
            G 
    Y me entrego señor
    F
    No importa lo que digan
              G        F  E
    Lo que digan de mi
    
    Coro:
    
    
  • Tablatura
    D/--7-7---5-5-7--------------------------
    A/------7--------------------------------
    E/---------------------------------------
    
    e/---------------------------------------
    b/---------------------------------------
    g/---------------------------------------
    D/--10arrastrado17-----10---9------------
    A/---8----------15------8---7------------
    E/---------------------------------------
    
    rifft 1
    e/---------------------------------------
    b/---------------------------------------
    g/---------------------------------------
    D/--5-5-3-2------------------------------
    A/---------------------------------------
    E/---------------------------------------
    
    En esto todos juntos
    
  • Tab p/Bajo
             Esta vez colaboro con esta rola que me costó un poco el
    sacar las figuras pero en fin; aquí esta...
    
    
    
    ::Intro::
    
    E |---5---5------3--3--3---5---------5----5------3--3--3----5----
    A |--------------------------------------------------------------
    D |--------------------------------------------------------------
    G |--------------------------------------------------------------
    B |--------------------------------------------------------------
    
    
    
    
    E |--5-------------------1---0----------5-------------------1----0--
    A |-----------------------------------------------------------------
    D |-------2-----------------------------------2---------------------
    G |------------0----2------------------------------0----2-----------
    B |-----------------------------------------------------------------
    
    
    ::Verso::
    
    E |----5----------------5------3----------------3-----5----------------5------3----------------3--
    A |--------7-------7---------------5-------5--------------
  • +
    ¡Colabora con nosotros!
    Envíanos tu versión de esta canción

Letra de Te Nececito
Hice esta canción
Con el propósito de acercarme a ti
Confieso que sin ti
Nada soy
Te doy mi corazón
Y me entrego señor
No importa lo que digan
Lo que digan de mi
Te necesito para vivir
Te necesito para seguir
Te necesito...hooo
Jesús
Tu conoces mi corazón
Y sabes muy bien
Que vació estoy
Sin tu calor
Te doy mi corazón
Y me entrego señor
No importa lo que digan
Lo que digan de mi
Te necesito para vivir
Te necesito para seguir
Te necesito...hooo
Jesús



© LaCuerda.net · Aviso Legal · Privacidad