Tablatura para Guitarra de Zoe: Vía Láctea
Conexión · Inscripción
Letras y Acordes
Pantalla Completa
Imprimir
Versión Texto
Añadir Favorito
Otras Versiones

Mostrar Diagramas
Desfile Automático
Manipular Acordes
Formato del Texto


Vía Láctea(TAB)

Zoe

calidad:
zoe0247
AUTOR: León Larregui/zoé
ALBUM: Sin Nombre Todavía (2006)
Enviado por gustavo
TZV..

INTRO: (LA GUITARRA INICIA AL MINUTO 0:09 EN PALM MUTE)
e-----------------------------------------------------------------------|
B-----------------------------------------------------------------------|
G-99-------------------------------------99-----------------------------|
D----99------1212-1010-99-------------------1212-1010-99------1010-99---|
A-------1010--------------1212-1010-1212-----------------1212-----------|
E-----------------------------------------------------------------------|

LUEGO CON ACORDES Em C Am C x2

VERSO:
(EN PALM MUTE)
e-------------------------------------|
B-------------------------------------|
G------99-----------------------------|
D---------1212-1010-99------1010-99---|
A-1212-----------------1212-----------|
E-------------------------------------|

e-12-12-121212121212-12---|
B-------------------------|
G-------------------------|
D-------------------------|
A-------------------------|
E-------------------------|

e------|
B------|
G------|
D-2~---|
A-2~---|
E-0~---|

e-12-12-12-12-12-12-12---|
B------------------------|
G------------------------|
D------------------------|
A------------------------|
E------------------------|

e-------------------------------------|
B-------------------------------------|
G------99-----------------------------|
D---------1212-1010-99------1010-99---|
A-1212-----------------1212-----------|
E-------------------------------------|

PRECORO: C D B C Am C G~

CORO:
GUITARRA 1: C G C G C G C D Em~

GUITARRA 2:
e-7777777777777777777777777777777777777777777777777777777777777777---|
B-8888888888888888888888888888888888888888888888888888888888888888---|
G--------------------------------------------------------------------| x2
D--------------------------------------------------------------------|
A--------------------------------------------------------------------|
E--------------------------------------------------------------------|
TERMINANDO EL CORO DEJAR SONANDO

LUEGO HACE ESTO:
e---------------------------------|
B-53------------------------------|
G---544~-540~-2~-2424~-2424~-54~---|
D---------------------------------|
A---------------------------------|
E---------------------------------|

VERSO:
e-------------------------------------|
B-------------------------------------|
G------99-----------------------------|
D---------1212-1010-99------1010-99---|
A-1212-----------------1212-----------|
E-------------------------------------|

e-12-12-12-12-12-12-12---|
B------------------------|
G------------------------|
D------------------------|
A------------------------|
E------------------------|

e-------------------------------------|
B-------------------------------------|
G------99-----------------------------|
D---------1212-1010-99------1010-99---|
A-1212-----------------1212-----------|
E-------------------------------------|

PRECORO: C D B C Am C G~

CORO:
GUITARRA 1: C G C G C G C D Em~

GUITARRA 2:
e-7777777777777777777777777777777777777777777777777777777777777777---|
B-8888888888888888888888888888888888888888888888888888888888888888---|
G--------------------------------------------------------------------| x2
D--------------------------------------------------------------------|
A--------------------------------------------------------------------|
E--------------------------------------------------------------------|

DESPUES HACEN ESTO:
GUITARRA 1 x2
e-----------------------------------------------------------------------|
B-----------------------------------------------------------------------|
G-99-------------------------------------99-----------------------------|
D----99------1212-1010-99-------------------1212-1010-99------1010-99---|
A-------1010--------------1212-1010-1212-----------------1212-----------|
E-----------------------------------------------------------------------|

GUITARRA 2 x2

e-12-121212121212-12---|
B----------------------|
G----------------------|
D----------------------|
A----------------------|
E----------------------|

SOLO:
GUITARRA 1: C D B C Am C G
C G C G C G C D Em
C D Em GUITARRA 2: x3 e-7778757-777-77778757-777777778757-7777777------------------| B-------------------------------------------77-88-88-88-88---| G------------------------------------------------------------| D------------------------------------------------------------| A------------------------------------------------------------| E------------------------------------------------------------| e------------| B------------| G-5~-7~-9~---| D-5~-7~-9~---| A-3~-5~-7~---| E------------|
Este fichero es trabajo propio de su transcriptor y representa su interpretación personal de la canción. El material contenido en esta página es
para exclusivo uso privado, por lo que se prohibe su reproducción o retransmisión, así como su uso para fines comerciales.

© LaCuerda.net · Aviso Legal · Privacidad