Tablatura para Bajo de Zoe: Love
Conexión · Inscripción
Letras y Acordes
Pantalla Completa
Imprimir
Versión Texto
Añadir Favorito
Otras Versiones

Mostrar Diagramas
Desfile Automático
Formato del Texto


Love(BAJ)

Zoe

calidad:
zoe0133
AUTOR: L.l
ALBUM: desconocido
Enviado por Luis, basado en Pablo
La otra tab estaba bien hecha pero un poco
desordenada y una que otra pisada mal,
espero que esta si quede clara...

En tu planeta me quede...
G|------------------------------------------------
D|------------6-----------------10----------------
A|-------6-------6---------10-------10--10--------
E|---4-------------88-0-8------------------11-7---

Fue por un tiempo...
G|-----------------------------
D|-----7h9-7-5-4----8----------
A|--9-------------6------7-----
E|---------------------5-------

Pero mi nave...
G|-------------------------------------------------
D|-----------6-----------------8h10-8--------------
A|------6-------9-8-6-----10----------10---8-6-0---
E|--4------------------8---------------------------

Y ahora estoy...
G|----------------------------------
D|---------------------8------8-8---
A|----9-------------6----66-6--6----
E|-7-----77-8-9-10------------------

Con tres soles...
G|-----------------------------------------------------
D|---------------------11------------------------------
A|-----11-----------9------5-6-7-9-----11------11-11---
E|--9------9-7-6-5------------------9-----99-9---9-----

G|----------------------------------------
D|-----4------4------------------------6--
A|--2----22-2---2-4-----4---------2-4-----
E|-------------------2-----22-4-5---------

G|--------------------------------------------
D|--------4h6-4--------6----------------------
A|-44-4----------6-4------44-4-/16-16-16-16---
E|--------------------------------------------

Coro
G|-------------------------------------
D|------------------------------------- (x2)
A|-----------9-9-9-9-------------------
E|--7-7-7-7----------9-9-9-9-9-9-9-9---

Cuando se queda el "sonido espacial" hace este slide:

(1:12)
G|-----------
D|----------- (x2)
A|-----------
E|--0h2/13---

Se empieza otra vez al (1:19) y el verso es igual.

En tu planeta me quede...
G|------------------------------------------------
D|------------6-----------------10----------------
A|-------6-------6---------10-------10--10--------
E|---4-------------88-0-8------------------11-7---

Fue por un tiempo...
G|-----------------------------
D|-----7h9-7-5-4----8----------
A|--9-------------6------7-----
E|---------------------5-------

Aqui si cambia un poco por unos arreglos...

Pero mi nave...
G|-------------------------------------------------
D|-----------6-----------------8h10-8--------------
A|------6-------9-8-6-----10----------10-8-6-0-----
E|--4------------------8---------------------------

Y ahora estoy...
G|---------------------------------
D|---------------------------------
A|----9-------------6-66-66-6--6~~~ (silencio)
E|-7-----77-8-9-10-----------------

(1:49)
G|---------------------
D|---------------------
A|-----11------11-11---
E|--9-----99-9---9-----

G|----------------------------------------
D|-----4------4------------------------6--
A|--2----22-2---2-4-----4---------2-4-----
E|-------------------2-----22-4-5---------

G|---------------------------------------
D|-------6-4-------6---------------------
A|-44-4------6-4------44-4-/1616161616---
E|---------------------------------------

Coro
G|-------------------------------------
D|------------------------------------- (x2)
A|-----------9-9-9-9-------------------
E|--7-7-7-7----------9-9-9-9-9-9-9-9---

G|-------------------------------------------
D|---------------------------8h9-99-8-9-11---
A|-----------9-9-9-9-------------------------
E|--7-7-7-7----------9-9-9-9-----------------

G|----------------------------------------
D|----------------------------------------
A|-----------9-9-9-9----------------------
E|--7-7-7-7----------9-9-9-9/1515151515---

Love, love, love...
(Igual pero el ritmo es un poco mas rapido)
G|--------------------------------------
D|-------------------------------------- (x6)
A|-----------9-9-9-9--------------------
E|--7-7-7-7----------9-9-9-9-9-9-9-9----

G|---------------------
D|--------------------- (x3)
A|-----------9-9-9-9---
E|--7-7-7-7------------

Outro
G|------
D|------
A|------
E|-7~---

Y ya está, practiquenla junto con la cancion para que
encuentren el ritmo de las pisadas.
..::Viciouz todos los viernes 10:00 p.m
en el billar PoolZo de Viveros::..
y ya saben cualquier cosa arriba esta mi correo, gracias.
Este fichero es trabajo propio de su transcriptor y representa su interpretación personal de la canción. El material contenido en esta página es
para exclusivo uso privado, por lo que se prohibe su reproducción o retransmisión, así como su uso para fines comerciales.

© LaCuerda.net · Aviso Legal · Privacidad