Acordes de Guitarra » Z »Zen » Sol (Tab)

Sol
Zen

Letras, Acordes y Tabs para Guitarra, Bajo y Ukulele

  • INTRO:Em7-A
    
    Em7         A           Em7         A
    No hay un lugar donde puedas desahogarte 
                 G             D   
    cuando miras a tu alrededor
           G                A 
    sientes como vas ardiendo dentro de ti 
              Em                     D  
    cuando te sientas sola cuando se oculte sol
          Em7              A
    cuando todo se han ido yo estare
    
    Em7 A Em7 A 
    
        Em7     A            Em7          A
    te di una parte de este corazon enfermo 
          G               D
    has lo quieras hacer con el
          G            A
    
  •          G                               
    e--0---3---
    B--3---3---
    G--4---4---
    D--4---5---
    A------5---
    E------3---
    
    Intro: [  ]
    
    Em           Bm      
    No hay un lugar
          G           A      
    Donde puedas desahogarte 
          Em             Bm      
    Cuando miras a tu alrededor
           G                   A
    Sientes cómo vas ardiendo dentro de ti
    
    
    
  • MI--I----0--------0-0-0------------------------------------------0-2-2-2-2+3-3-3-3+5-5-5-5+3-3+5-5-7-I
    SI--I3-3---3-3----3-3-3--3-3+2-0-2+3-2-0-2+0---2+3-3-3---3-3-----3-3-3-3-3+5-5-5-5+5-5-5-5+5-5+7-7-7-I
    SOL-I--------------------------------------------------2---------------------------------------------I
    RE--I------------------------------------------------------------------------------------------------I
    LA--I------------------------------------------------------------------------------------------------I
    MI--I------------------------------------------------------------------------------------------------I
    
    Segundo punteo
    MI--I-5-5+7-7-7-7---7-7-7--7-7---9+10-10-9-9+10-10-9-9+10-10-9-9-7-7-5-5+7-7-0-0-0-0---0-0-0--0-0--
    SI--I-7-7+9-9-9-9---9-9-9--9-9-------------------------------------------------3-3-3---3-3-3--3-3--
    SOL-I----------------------------------------------------------------------------------------------
    RE--I----------------------------------------------------------------------------------------------
    LA--I----------------------------------------------------------------------------------------------
    MI--I----------------------------------------------------------------------------------------------
    
    +2--2-2-2-2+3-3-3-3+5-5-5-5+3-3+5-5-7------I
    +3--3-3-3-3+5-5-5-5+5-5-5-5+5-5+7-7-7------I
    -------------------------------------------I
    -------------------------------------------I
    -------------------------------------------I
    
  • ZEN desenchufado 28 de junio 2007
    
    Sol (Solo)
    
    |--------------------------------------------|
    |--7-7-7-8-5-5-5-7-3-3-3-3/5-3-2/3/2---------|
    |------------------------------------4-4p2-2-|
    |--------------------------------------------|
    |--------------------------------------------|
    |--------------------------------------------|
    
    
    |------------------------------------------------------------|
    |----------2-2-3-3-5-5-7-7-8-8-5-5-7-7-8-8/10-8-10-10/12-12--|
    |--2-2-4-4---------------------------------------------------|
    |------------------------------------------------------------|
    |------------------------------------------------------------|
    |------------------------------------------------------------|
    
    Tocarlo escuchando la cancion
    
    TeAmO PaMe
    
    
    damitu_8@hotmail.com
    01:34 p.m. 18/06/2008
  • esta es muy buena cancion y es gratificante poder tocarla
    
    Intro
    G----------------------------------------------------------|
    D---2-0-2-----0-2-2-2-4-5-4-2------------------------------|
    A-----------2-------------------------------------4-5-4-0--|x2
    E-------------------------------5-3-5---0-3-5-5-5----------|
    
    toda la 1ra estrofa es como el intro
    
    
    2da estrofa
    G-----------------------------------------------------------|
    D-----------------------------------------------------------|
    A---(10-10-10-10-10-10-10-10)x2-(12-12-12-12-12-12-12-12)x2-|
    E-----------------------------------------------------------|
    
    G----------------------------------------------------------------------------|
    D----------------------------------------------------------------------------|
    A---(10-10-10-10-10-10-10-10)x2-(12-12-12-12-12-12-12-12)x2-12---0-2-2-4-4-5-|
    E----------------------------------------------------------------------------|
    
    Coro
    G------------------------------------------
  • bateria de zen con un ritmo atípico                    JAD92º
    giorgio bertoli                                        geas92
                                               geas92@hotmail.com
    
    http://es.youtube.com/watch?v=H2NTbuF2KYs ( el video x siaca)
    
    hh-hit hat
    H1-crash derecho
    H2-crash izquierdo
    t- tarola
    b- bombo
    R- ride
    t1-tomb pequeño
    t3-tomb grande
    s -splash
    la mayuscula de las x(X) es por la intensidad de golpe.
    
    intro:
    
    hh |----xxxxxxxxxxxxxx|xxxxxxxxxxxxx|xxxxxxxxxxxxx|xxxxxxxxx---|
    t  |(o)-o--o---o--o--o|--o---o--o--o|--o---o--o--o|--o---o--o--|
    t1 |------------------|-------------|-------------|----------o-|
    t3 |(o)-----—-—-—-—-—-|-------------|-------------|------------|
    b  |------o-o-o-oo-oo-|-o-o-o-oo-oo-|-o-o-o-oo-oo-|-o-o-o-oo--o|
    H1 |---X--------------|-------------|-------------|-----------x|
    H2 |------------------|-------------|-------------|-----------x|
    
    verso 1(No hay un lugar donde puedas desahogarte):
    
    hh |xxxxxxxxxxxxxx|xxxxxxxxxxxxx|xxxxxxxxxxxxx|xxxxxxx
  • +
    ¡Colabora con nosotros!
    Envíanos tu versión de esta canción

Letra de Sol
No hay un lugar
Donde puedas desahogarte
Cuando miras a tu alrededor
Sientes cómo vas ardiendo dentro de ti
Cuando te sientas sola
Cuando se oculte el sol
Cuando todos se han ido
Yo estaré
[Repetir intro]
Te di una parte
De este corazón enfermo
Has lo que quieras hacer con él
Sólo trata de no alejarte mucho de Mi
Cuando miras a tu alrededor
Sientes cómo vas ardiendo dentro de ti
[Repetir Intro]
Un beso para mi Galletita Paty y muchos saludos para toda la people rockera de
san juan de3 miraflores en especial a la gentita del 12, y a mis patazas del
IST: 'OAT'.
Anoten mi correo a su msm, para asi intercambiar ideas, algun dia estarn mis
canciones aqui.




[Sol chords][Sol cifra]
© LaCuerda.net · aviso legal · privacidad · es · en · pt · contacto
DINAMICO