Acordes de Guitarra » Z »Zen » Quédate (Tab)

Quédate
Zen

Letras, Acordes y Tabs para Guitarra, Bajo y Ukulele

  • F#m
    Quédate una noche más
                           B
    déjame tratar de asimilar
    F#m
    quédate una noche más
                           B
    déjame tratar de entender
                   F#m
    Prometo no hablar
                  B
    Prometo no tocarte
    
    
    
    CORO:
    
                 E        B
    El tiempo dirá si me voy
             F#m       A
    
  • E 2
    B 5
    G 3
    D 2
    A 4
    E 2
    
    Bueno disfruten la cancion:
    
    
    
    
    F#m
    Quedate una noche mas
                          (B-B4)x2
    dejame tratar de asimilar
    F#m
    Quedate una noche mas
                         (B-B4)x2
    dejame tratar de entender...
    
  •  FA#menor   SIM13   SOL#menor   LA    MI    FAM#
      E-2         E-0      E-4      E-0   E-0    E-2
      B-2         B-4      B-4      B-2   B-0    B-2
      G-2         G-4      G-4      G-2   G-1    G-3
      D-4         D-4      D-6      D-2   D-2    D-4
      A-4         A-2      A-6      A-0   A-2    A-4
      E-2         E-0      E-4      E-0   E-0    E-2
    
    
    
    
    
     'Quédate una noche más dejame tratar de asimilar...'
      FA#menor                                    SIM13
    
      E---------------------------0----------0-----
      B-------------------------4--4-4----4---4-4--
      G--2--2-2---2--2-2-------4-4--4----4-4---4---  (REPETIR)
      D----4-4------4-4----------------------------
      A--------------------------------------------
    
  • F#m5:x44200
      B5:X24400
    G#m5:x66400
       E:022100
      A2:002200
     F#5:244300
    HAY LES VA LA SEGUNDA GUITARRA DE JOVHAN:
    ESTROFA 1:
    F#m5
    Quedate una noche mas
                         B5
    dejame tratar de asimilar
    F#m5
    Quedate una noche mas
                         B5
    dejame tratar de entender...
    ESTE PUNTEO DE LA PRIMERA GUTARRA ,ACOMPAÑA LA PRIMERA ESTROFA:
              F#m5        |         B5
    E|--------------------------0---------0--------
    B|-----------------------4---4-4---4---4--2-4--
    
  • CANTO:
    G------------------------------------------------------------------
    D------------------------------------------------------------------
    A--------------2-2~--2-2~-24-------------2-2~--2-2~-24-------------
    E-2-2~--2-2~-45-------------2-2~--2-2~-45--------------------------
    
    CANTO 2:
    G------------------------------------------------------------------
    D------------------------------------------------------------------
    A------------------00000000-22222222-------------------------------
    E-22222222-44444444------------------------------------------------
    
    CORO:
    G------------------------------------------------------------------
    D------------------------------------------------------------------
    A--------2-2~-24-------0-0~-----------2-2~-24-------0--------------
    E-0-0~-45-------2-2~-24-----42-0-0~-45-------2-2~-24---------------
    
    (REPITE CANTO)
    (REPITE CANTO 2)
    (REPITE CORO)
    
    SOLO:
    G------------------------------------------------------------------
    D-------------------------------------
  • +
    ¡Colabora con nosotros!
    Envíanos tu versión de esta canción
  • Tutorial
    HD
    Quédate - ZEN (tutorial)
    3:23

Letra de Quédate
Quédate una noche más
déjame tratar de asimilar
quédate una noche más
déjame tratar de entender
Prometo no hablar
Prometo no tocarte
El tiempo dirá si me voy
si no estás nunca más
la noche hablará si me voy
si no estás nunca más
Quédate una noche más
aunque sólo crucen las miradas
quédate una noche más
siento que sera la última vez
Prometo no llorar
Prometo no acercarme
REP coro 2 veces




[Quédate chords][Quédate cifra]
© LaCuerda.net · aviso legal · privacidad · es · en · pt · contacto