Acordes de Guitarra » W »Widinson » Dos Morenas (Tab)

Dos Morenas
Widinson

Letras, Notas, Punteos, Tablaturas y Acordes de Guitarra (Tabs & Chords)

  • Letra y Acordes
    MIm SOL DO SOL DO
    
    MIm RE
    
    MIm             RE
    Zaaaaaa Zaaaa   Zaaaaaa Zaaaa
    
    MIm                     RE
    En una mañana con mucho sol
    LAm                       MIm
    Viene una morena buscando amor
                                RE
    Estoy enamorado y no sé qué hacer
    LAm                          MIm
    Que hago señores si ya tengo amor
    
    REm           MIm
    No puedo y yo quiero
    RE            MIm (RE-MIm)
    Las amo a las dos
    
  • Tablatura
    e|-------------------------------
    b|-----------------8-7-----------
    g|---7/9-9-------9-----9---------
    D|---------9-9-9-----------------
    A|-------------------------------
    E|-------------------------------
    
    e|-------------------------------
    b|-----------------8-7-----------
    g|---7/9-9-------9-----9---------
    D|---------9-9-9-----------------
    A|-------------------------------
    E|-------------------------------
    
    e|---7-7--------7-10-7-----------
    b|-------8-8-10--------10--------
    g|-------------------------------
    D|-------------------------------
    A|-------------------------------
    E|-------------------------------
    
  • +
    ¡Colabora con nosotros!
    Envíanos tu versión de esta canción

Letra de Dos Morenas
Zaaaaaa Zaaaa Zaaaaaa Zaaaa
En una mañana con mucho sol
Viene una morena buscando amor
Estoy enamorado y no sé qué hacer
Que hago señores si ya tengo amor
No puedo y yo quiero
Las amo a las dos
No puedo y yo quiero
Las amo a las dos
Fuera fuera fuera si se entera mi morena
Mi morena si se entera me va a matar
Fuera fuera fuera si se entera mi morena
Mi morena si se entera me va a matar
Wooooo no sé qué va a hacer mi vida
Wooooo la extraño en la noche a la otra en el día
Wooooo por las dos mi corazón palpita
Wooooo que voy a hacer
No puedo y yo quiero
Las amo a las dos
No puedo y yo quiero
Las amo a las dos
Zaaaaaa Zaaaa Zaaaaaa Zaaaa
Qué difícil es esto del amor
Querer a dos mujeres es mi obsesión
No quiero lastimar ni un corazón
Que hago señores si amo a las dos
No puedo y yo quiero
Las amo a las dos
No puedo y yo quiero
Las amo a las dos
Fuera fuera fuera si se entera mi morena
Mi morena si se entera me va a matar
Fuera fuera fuera si se entera mi morena
Mi morena si se entera me va a matar
Wooooo no sé qué va a hacer mi vida
Wooooo la extraño en la noche a la otra en el día
Wooooo por las dos mi corazón palpita
Wooooo que voy a hacer
No puedo y yo quiero
Las amo a las dos
No puedo y yo quiero
Las amo a las dos
Zaaaaaa Zaaaa Zaaaaaa Zaaaa



© LaCuerda.net · Aviso Legal · Privacidad