Acordes de Guitarra » V »Voz Veis » El Farolito (Tab)

El Farolito
Voz Veis

Letras, Acordes y Tabs para Guitarra, Bajo y Ukulele

  • |---------3----------5-0-----1----|
    |-------1----3--2-2--------3------|
    |-0---0------0--2-2------2--------|
    |---------------2-2---------------|
    |---3-----------------------------|
    |---------------------------------|
    
    |-------1-1--0--------------5-5---|
    |-----3---3----3-1--------3-------|
    |---2-----2-------------2---------|
    |-0-------------------0-----------|
    |---------------------------------|
    |-------------------2-------------|
    
    |----------4-4-------0------------|
    |-------3----------0--------3-----|
    |-----2----------0--------0-------|
    |---0-------------------0---------|
    |---------------------------------|
    |-1------------3------3-----------|
    
  • e|----3------5-0-1-|-1-0-------5-5--|---5-5---4-4----|
    B|-1-----3-2-------|-----3-1-3------|-3-----2--------|
    G|-------0-2-------|----------------|----------------|
    D|---------2-------|----------------|----------------|
    A|-----------------|----------------|----------------|
    E|-----------------|----------------|----------------|
    
    
    
           C                          C/B
    Aun recuerdo el farolito de la esquina
          Am                    Am7
    Tiernamente alumbraba mis mentiras
          F                    G
    No tenia dieciseis como decia
            C
    Era un niño en edad de golosinas
          C                            C/B
    Me besaste ante la luna y mis dos primas
         Am                        Am7
    
  • Acodes: E7b9; 023130 / A7b9; x02323
    
    
    Cadd9                           G/B
    Aun recuerdo el farolito de la esquina
          Am                    Am/G
    Tiernamente alumbraba mis mentiras
          Fmaj7                    Gadd9
    No tenia dieciseis como decia
            Cadd9                      Gadd9
    Era un niño en edad de golosinas
            Cadd9                      G/B
    Me besaste ante la luna y mis dos primas
         Am                        Am/G
    Sonrojando hasta la ropa  que tenia
            Fmaj7                        Gadd9
    Labios tiernos que mataban mi vigilia
          Cadd9                            E7
    Se robaban los juguetes de esos dias
    
    
  • +
    ¡Colabora con nosotros!
    Envíanos tu versión de esta canción

Letra de El Farolito
Verso
Aun recuerdo el farolito de la esquina
Tiernamente alumbraba mis mentiras
No tenia dieciseis como decia
Era un niño en edad de golosinas
Me besaste ante la luna y mis dos primas
Sonrojando hasta la ropa que tenia
Labios tiernos que mataban mi vigilia
Se robaban los juguetes de esos dias
Pre-coro
Los encuentros de fútbol con mis amigos
Los cambié por besos y unos cigarrillos
Yo fuí un Dios que hizo verano en tu mejilla
Un astronauta entre tus pechos de afrodita
(El coro va exactamente a la introduccion excepto
en la parte de Tus recuerdos son estrellas que
no paran de llover)
Y van, van por dentro
Tus recuerdos son estrellas que
no paran de llover
(el 2do verso va igual que el primero y despues
se repite 2 veces el precoro)
(cuando esta terminando el segundo coro de esta
repeticion, osea en 'que no paran de llover',
cae en Am)
Tus estrellas nunca nunca paran de llover




[El Farolito chords][El Farolito cifra]
© LaCuerda.net · aviso legal · privacidad · es · en · pt · contacto