Tablatura para Guitarra de Viejas Locas: Una vez mas
Conexión · Inscripción
Letras y Acordes
Pantalla Completa
Imprimir
Versión Texto
Añadir Favorito
Otras Versiones

Mostrar Diagramas
Desfile Automático
Manipular Acordes
Formato del Texto


Una vez mas(TAB)

Viejas Locas

calidad:
vloc0283
AUTOR: Viejas Locas  corregir
ALBUM: Especial
Enviado por Lucko
INTRO

e|-----------------------------------------------------------------
B|-----------------------------------------------------------------
G|--9p8---9p8----9p8---9p8-------7p6---7p6---7p6---7p6-------------
D|------9-----9------9-----9--s7-----7-----7-----7-----7-----------
A|-----------------------------------------------------------------
E|-----------------------------------------------------------------


PRIMER SOLO

e|-----------------------------------------------------------------
B|-----------------------------------------------------------------
G|-9p8---9p8----9p8---9p8-------7p6---7p6---7p6---7p6-------9p8----
D|-----9-----9------9-----9--s7-----7-----7-----7-----7--s9-----9--
A|-----------------------------------------------------------------
E|-----------------------------------------------------------------


e|-----------------------------------------------------------------
B|---------------------------10h12-10------------12-----12-14ba p12
G|-9p8--9-9s11------------------------11s----s13-----14------------
D|---------------------7-9-----------------------------------------
A|---------------7-7h9---------------------------------------------
E|-----------------------------------------------------------------


e|-----------------------------------------------------------------
B|----12-----12-------15p12----15p12----15p12----15p12----15p12----
G|-14-----14----14----------14-------14-------14-------14-------14-
D|-----------------------------------------------------------------
A|-----------------------------------------------------------------
E|-----------------------------------------------------------------


e|------------------------------------------------14---------------
B|-15p12----15p12----15p12--------15p12----12-14b----14b--14ba p12-
G|-------14-------14-------14-----------14-------------------------
D|-----------------------------------------------------------------
A|-----------------------------------------------------------------
E|-----------------------------------------------------------------


e|-----------------------------------------------------------------
B|----12-14ba-p12----12------------12ba-p10----10------------------
G|-13-------------13------------------------11---------------------
D|-----------------------------------------------------------------
A|-----------------------------------------------------------------
E|-----------------------------------------------------------------


SEGUNDO SOLO

e|-------------------------------------------------------------------
B|-------------------------------------------------------------------
G|-----------------------------------------2---2-4ba-2---2---4b-2-4b-
D|-------2-4--4-2-2h4-2----------------2-4---4---------4---4---------
A|-2-2h4----------------4-2------2-2h4-------------------------------
E|--------------------------5-5--------------------------------------

e|-----------------------------------------------------------------
B|-----------------------------------------------------------------
G|-----22-----22------------------------------------------2---2-4b-
D|-2h4----2h4----4-2-4--4-2-2h4-2-------------2-2---2-2h4---4------
A|--------------------------------4-2-----2h4-----4----------------
E|------------------------------------5-5--------------------------

e|-----------------------------------------------------------------
B|--------5b-5-------------------5b--5-5ba-------------------------
G|-2---2-------4ba-22-4ba-22-4ba-----------4ba-22-----------9-11---
D|---4-----------------------------------------------9-9h11--------
A|-----------------------------------------------------------------
E|-----------------------------------------------------------------

e|------------------------12b-12-----------------------------------
B|-10----10-12ba-10----10--------12ba-10-10-12ba-10-10-12ba-10-----
G|----11------------11-----------------------------------------11--
D|-----------------------------------------------------------------
A|-----------------------------------------------------------------
E|-----------------------------------------------------------------
Este fichero es trabajo propio de su transcriptor y representa su interpretación personal de la canción. El material contenido en esta página es
para exclusivo uso privado, por lo que se prohibe su reproducción o retransmisión, así como su uso para fines comerciales.

© LaCuerda.net · Aviso Legal · Privacidad