Acordes de Guitarra » V »Victor Yturbe » Felicidad (Tab)

Felicidad
Victor Yturbe

Letras, Acordes y Tabs para Guitarra, Bajo y Ukulele

  • C       F
    Felicidad
             C            F
    hoy te vengo a encontrar
             Em
    cuanto tiempo
    D7         G
    huiste de mi.
    
    C       F
    Felicidad
             C        F
    no te vuelvo a dejar
           Em    D7
    no podria vivir 
            G
    ya sin ti.
    
           C         Am
    Hoy amanece y el sol
    
  •  A     D
    Felicidad
            A             D
    hoy te vengo a encontrar
            C#m     B7       E7
    cuanto tiempo huiste de mi.
    
     A     D
    Felicidad
            A         D
    no te vuelvo a dejar
           C#m  B7          E7
    no podría vivir ya sin tí.
    
            A        F#m
    Hoy amanece y el sol
              D          E7
    tiene un raro esplendor
                 A      F#m
    escucho al viento pasar
    
  • BIEN LO PROMETIDO ES DEUDA, HAY LES VA LA TABLATURA
    DEL REQUINTO DE FELICIDAD, ESPERO LA DISFRUTEN.
    
    REQUINTO AL AIRE, O GUITARRA CON CAPO EN EL 5o TRASTE.
    
    E-----------------------------------------------
    A-----------------------------------------------
    D-----------------------------------------------
    G---9-----9-----------9-------9-----------------
    B---9--9-----9-------10---10-----10-------------
    e---7-----------7-----9--------------9----------
    
    
    E-----------------------------------------------
    A-----------------------------------------------
    D-----------------------------------------------
    G---9-----9-----------9-------9-----------------
    B---9--9-----9-------10---10-----10-------------
    e---7-----------7-----9--------------9----------
    
    
    
    E----------------------------
    A----------------------------
    D----------------------------
    G---9-----9------------------
    B---9--9---------------------
    e---7------------------------
    
    
    E----------------------------
    A------
  • +
    ¡Colabora con nosotros!
    Envíanos tu versión de esta canción

Letra de Felicidad
Felicidad
hoy te vengo a encontrar
cuanto tiempo
huiste de mi.
Felicidad
no te vuelvo a dejar
no podria vivir
ya sin ti.
Hoy amanece y el sol
tiene un raro esplendor
escucho al viento pasar
veo la luna brillar
Al mismo cielo lo miro
con otro color
nada es nuevo
*** se repite dos veces y termina asi:
Felicidad
Felicidad
Felicidad
Felicidad.
HASTA MUY PRONTO*******************




[Felicidad chords][Felicidad cifra]
© LaCuerda.net · aviso legal · privacidad · es · en · pt · contacto