Acordes de Guitarra » V »Victor Yturbe » Ave negra (Tab)

Ave negra
Victor Yturbe

Letras, Acordes y Tabs para Guitarra, Bajo y Ukulele

  •     Dm                  A7                 Dm   
    Si piensas que por tu ausencia me estoy muriendo
     D7                                    Gm
    piensas mal por que piensas que vivo triste
     E7                                       A7
    piensas mal por que piensas que estoy llorando
       Gm                          Dm
    te equivocas traidora vivo cantando
                   A7             Dm   Gm  Dm  A7  Dm 
    y de nuevo dichoso porque te fuiste.
     Dm               A7              Dm
    Los amores traidores no me hacen daño
    D7                         Gm
    mi corazon de marmol es insensible
     E7                          A7
    huye cual ave negra del desengaño
            Gm                            Dm
    porque tengo la experiencia de muchos años
                  A7             Dm   Gm  Dm  A7  Dm 
    y jamas me enamoro de lo imposible.
    
  •     LAm                MI7                LAm
    Si piensas que por tu ausencia me estoy muriendo
    LA7                                 REm
    piensas mal porque piensas que vivo triste
    SI7                                     LA7
    piensas mal porque piensas que estoy llorando
           REm                    LAm
    te equivocas traidora vivo cantando
                 MI7              LAm
    y de nuevo dichoso porque te fuiste
    
    LAm            MI7               LAm
    Los amores traidores no me hacen daño
    LA7                         REm
    mi corazón de mármol es insensible
    SI7                          LA7
    huye cual ave negra del desengaño
           REm                            LAm
    porque tengo la experiencia de muchos años
                  MI7            LAm
    
  •   Dm                         Am
    e|----13---------13-----13--|----12--------12-----12--|
    B|---15-------15-----15-----|---13------13-----13-----|
    G|--14-----14---------------|--14----14---------------|
    D|--------------------------|-------------------------|
    A|--------------------------|-------------------------|
    E|--------------------------|-------------------------|
    
    
    
      E7                        Am
    e|----10--------10-----10--|-----8----------8-------8--|
    B|---12------12-----12-----|---10-------10------10-----|
    G|--13----13---------------|--9------9-----------------|
    D|-------------------------|---------------------------|
    A|-------------------------|---------------------------|
    E|-------------------------|---------------------------|
    
    
    
    
  • +
    ¡Colabora con nosotros!
    Envíanos tu versión de esta canción

Letra de Ave negra
Si piensas que por tu ausencia me estoy muriendo
piensas mal por que piensas que vivo triste
piensas mal por que piensas que estoy llorando
te equivocas traidora vivo cantando
y de nuevo dichoso porque te fuiste.
Los amores traidores no me hacen daño
mi corazon de marmol es insensible
huye cual ave negra del desengaño
porque tengo la experiencia de muchos años
y jamas me enamoro de lo imposible.
Y no sigas pensando que vivo triste
ya que pude apartarte de mi memoria
y no sigas pensando que stoy llorando
desde que con tu ausencia tal me ofendiste
no pude haberte amado
cierra esta historia.




[Ave negra chords][Ave negra cifra]
© LaCuerda.net · aviso legal · privacidad · es · en · pt · contacto