Acordes de Guitarra » V »Victor Velázquez » La Primavera (Tab)

La Primavera
Victor Velázquez

Letras, Acordes y Tabs para Guitarra, Bajo y Ukulele

  • (Milonga)
    
    Notacion:
    ---------
    
     ^ = Notas ligadas
     / = Deslizar nota
     * = Armonicos
     | = Notas tocadas al mismo tiempo
    
    
    - Introduccion -
    
    
    --7^9^10--10^9^7--12------12^10^9--7------------------------------------
    -----------------------------------------------8^7^8-----5^4^5----------
    ------------------------------------------------------------------------
    ------------------------------------------------------------------------
    ------------------------------------------------------------------------
    ------------------------------------------------------------------------
    
                                   
    -----3-----------2------------------0-----------------------------------
    ----2-----------1------------------0------------------------------------
    ---3-----------2------------------0-------------------------------------
    --2-----------1------------------2--------------------------------------
    -0-----------0------------------2-------------------------------------
  • +
    ¡Colabora con nosotros!
    Envíanos tu versión de esta canción



Video de La Primavera
[]




[La Primavera chords][La Primavera cifra]
© LaCuerda.net · aviso legal · privacidad · es · en · pt · contacto