Acordes de Guitarra » V »Victor Jara » Preguntas por Puerto Montt (Tab)

Preguntas por Puerto Montt
Victor Jara

Letras, Acordes y Tabs para Guitarra, Bajo y Ukulele

  • LAm
            LAm
        Muy bien voy a preguntar
             DO               FA
        por ti, por ti, por aquel
            DO              FA
        por ti que quedaste solo
         MI7                 LAm
        y el que murió sin saber
            LAm
        Muy bien voy a preguntar
             DO               FA
        por ti, por ti, por aquel
             DO             FA
        por ti que quedaste solo
          MI7                LAm
        y el que murió sin saber,
               MI7      LAm
        que murió sin saber.
          DO
    
  •      F7                             Dm
    E||------------5--------5--------|-----------1--------1---------||
    B||---------5-----5--------5-----|--------3-----3--------3------||
    G||*-----5-----------5--------5--|-----2-----------2--------2--*||
    D||*--3--------------------------|--0--------------------------*||
    A||------------------------------|------------------------------||
    E||------------------------------|------------------------------||
    
    
      A7 A7A7      Bb  C   D
    -----------0--------0--------|--------------------------|------------------------|
    --------2-----2--------2-----|--------------------------|------------------------|
    -----0-----------0--------0--|------3-------0-------3---|------0-----3---5---7---|
    -----------------------------|----2---2---2---2---2---2-|----2-------------------|
    --0--------------------------|--1-------0-------1-------|--0-----0-1---3---5-----|
    -----------------------------|--------------------------|------------------------|
    
    
     Fin Intro              Verso:  Dm                                                  
    --------------|--------------|--1h0-------0--------|--1h0-------0--------|
    
  • +
    ¡Colabora con nosotros!
    Envíanos tu versión de esta canción

Letra de Preguntas por Puerto Montt
Muy bien voy a preguntar
por ti, por ti, por aquel
por ti que quedaste solo
y el que murió sin saber
Muy bien voy a preguntar
por ti, por ti, por aquel
por ti que quedaste solo
y el que murió sin saber,
que murió sin saber.
Murió sin saber por qué
le acribillaban el pecho
luchando por el derecho
y un suelo para vivir.
Ay! que ser más infeliz
el que mandó disparar
sabiendo como evitar
una matanza tan vil.
Puerto Montt, oh, Puerto Montt,
Puerto Montt, oh, Puerto Montt
Puerto Montt, oh, Puerto Montt
Puerto Montt, oh, Puerto Montt
Usted debe responder
señor Pérez Sujovic
por qué al pueblo indefenso
contestaron con fusil.
Señor Pérez su conciencia
la enterró en un ataúd
y no limpiaran sus manos
toda la lluvia del sur,
toda la lluvia del sur.
Murió sin saber por qué
le acribillaban el pecho
luchando por el derecho
y un suelo para vivir.
Ay! que ser más infeliz
el que mandó disparar
sabiendo como evitar
una matanza tan vil.
Puerto Montt, oh, Puerto Montt
Puerto Montt, oh, Puerto Montt. ...........
jomecho@gmail.com




[Preguntas por Puerto Montt chords][Preguntas por Puerto Montt cifra]
© LaCuerda.net · aviso legal · privacidad · es · en · pt · contacto
DINAMICO