Acordes de Guitarra » V »Victor Jara » Drume Negrita (Tab)

Drume Negrita
Victor Jara

Letras, Notas, Punteos, Tablaturas y Acordes de Guitarra (Tabs & Chords)

  • Letra y Acordes
    Intro: E - A - B7
    
        E               A                B7
    E||-------10--9--|--10--9--7------|-----------7--|
    B||--------------|------------10--|--9--10-------|
    G||--------------|----------------|--------------|
    D||--------------|----------------|--------------|
    A||--------------|----------------|--------------|
    E||--------------|----------------|--------------|
    
                 E             A                B7
    ----------|------10--9--|--10--9--7------|--------------||
    ----------|-------------|------------10--|--9--10----7--||
    ----------|-------------|----------------|--------------||
    ----------|-------------|----------------|--------------||
    ----------|-------------|----------------|--------------||
    ----------|-------------|----------------|--------------||
    
       E         A   B7
    Mamá a la negrita, se le salen
    
  • +
    ¡Colabora con nosotros!
    Envíanos tu versión de esta canción

Letra de Drume Negrita
Mamá a la negrita, se le salen
los pies en la cunita
y la negra Merce'
ya no sabe qué hacer.
Dru drume negrita
v'y hacer una cunita
que va a tener capité
que va a tener cascabel.
Si tú drume
yo te traigo un mamei
bien colora'o
y si no drume
yo te traigo un babalá
que da pau bau.
Dru drume negrita
v'y hacer una cunita
que va a tener capité
que va a tener cascabel.
(Interludio)
Mamá a la negrita
se le salen
los pies en la cunita
y la negra Merce'
ya no sabe qué hacer.
Dru drume negrita
v'y hacer una cunita
que va a tener capité
que va a tener cascabel.
yo te traigo un mamei
bien colora'o
y si no drume
yo te traigo un babalá
que da pau bau.
Dru drume negrita
v'y hacer una cunita
que va a tener capité
que va a tener cascabel.
Acordes usados :

Videos de Drume Negrita
[ver más videos]

[ver todas las canciones]


© LaCuerda.net · Aviso Legal · Privacidad