Acordes de Guitarra » V »Victor Jara » A cuba (Tab)
  • Tablatura
    A Cuba
    
    Gracias victor por dejarnos tu musica!!
    
    Intro:
                                Dm         Gm             A7
    E||---------------------||-------------------12----|--------12--15--13--12--15--|
    B||---------------------||-----------15------------|----------------------------|
    G||---------------------||*--14--------------------|----------------------------|
    D||---------------------||*------------------------|----------------------------|
    A||------------0--2--4--||-------------------------|----------------------------|
    E||---------------------||-------------------------|----------------------------|
    
    
      Dm              Gm                 A7                         
    --13--------12-13-15--13--12------|---------------------||
    ---------15-------------------15--|--14-----------------||
    ----------------------------------|--------------------*||
    ----------------------------------|--------------------*||
    ----------------------------------|---------------------||
    
  • +
    ¡Colabora con nosotros!
    Envíanos tu versión de esta canción

Letra de A cuba
Gracias victor por dejarnos tu musica!!
final 1
final 2
Si yo a Cuba le cantara,
le cantara una canción,
tendría que ser un son,
un son revolucionario,
pie con pie, mano con mano,
corazón a corazón,
corazón a corazón,
pie con pie, mano con mano,
como se le habla a un hermano,
si me quieres, aquí estoy
¿qué más te puedo ofrecer
sino continuar tu ejemplo?
Comandante, compañero,
¡viva tu revolución!
Si quieres conocer a Martí y a Fidel,
a Cuba, a Cuba, a Cuba iré
si quieres conocer los caminos del Che,
a Cuba, a Cuba, a Cuba iré
si quieres tomar ron pero sin Coca Cola,
a Cuba, a Cuba, a Cuba iré
si quieres trabajar en la caña de azúcar,
a Cuba, a Cuba, a Cuba iré
en un barquito se va el vaivén,
a Cuba, a Cuba, a Cuba iré
si quieres conocer a Martí y a Fidel.
a Cuba, a Cuba, a Cuba iré
Interludio:
Si yo a Cuba le cantara,
le cantara una canción,
tendría que ser un son,
un son revolucionario,
pie con pie, mano con mano,
corazón a corazón.
Como yo no toco el son
pero toco la guitarra,
que está justo en la batalla
de nuestra revolución,
será lo mismo que el son
qui hizo bailar a los gringos,
pero no somos guajiros,
nuestra sierra es la elección.
Si quieres conocer a Martí y a Fidel,
a Cuba, a Cuba, a Cuba iré
si quieres conocer los caminos del Che,
a Cuba, a Cuba, a Cuba iré
si quieres tomar ron pero sin Coca Cola,
a Cuba, a Cuba, a Cuba iré
si quieres trabajar en la caña de azúcar,
a Cuba, a Cuba, a Cuba iré
en un barquito se va el vaivén,
a Cuba, a Cuba, a Cuba iré
si quieres concer a Martí y a Fidel.
si quieres conocer los caminos del Che,
a Cuba, a Cuba, a Cuba iré.... perdiéndose
Acordes usados :



© LaCuerda.net · aviso legal · privacidad · contacto