Acordes de Guitarra » V »Vicentico » Algo contigo (Tab)

Algo contigo
Vicentico

  • Letra y Acordes
    B:---------3---3----------3---3---------3---3----------3---3|
    G:----4------4------3/4-----4-------4-----4------3/4-----4--|
    D:----------------------------------------------------------|
    A:----------------------------------------------------------|
    E:----3-------------3---------------3------------3----------|
    
    SOL
    ¿HACE FALTA Q TE DIGA
    LAm/FA#            SI          MIm    RE#m7 RE7  SOL7    
    QUE ME MUERO POR TENER ALGO CONTIGO?
     DOmaj7
    ¿ES QUE NO TE HAS DADO CUENTA
          SIm7         MI7            LAm
    DE LO MUCHO QUE ME CUESTA SER TU AMIGO?
    
    
          DOm                  FA/RE#
    YA NO PUEDO ACERCARME A TU BOCA
          SOL      RE/FA#    FA  MI7
    SIN DESEÁRTELA DE UNA MANERA LOCA,
    
  • Letra y Acordes
    B:---------3---3----------3---3---------3---3----------3---3|
    G:----4------4------3/4-----4-------4-----4------3/4-----4--|
    D:----------------------------------------------------------|
    A:----------------------------------------------------------|
    E:----3-------------3---------------3------------3----------|
    
    SOL
    ¿HACE FALTA Q TE DIGA
    LAm/FA#            SI          MIm   MIm7 RE#m7 REm7  SOL7/6
    QUE ME MUERO POR TENER ALGO CONTIGO?
     DOmaj7/9
    ¿ES QUE NO TE HAS DADO CUENTA
          SIm7         MI7/9            LAm7   LAm6
    DE LO MUCHO QUE ME CUESTA SER TU AMIGO?
    
    
    DOmaj7/9                  DOm7/6/4
    YA NO PUEDO ACERCARME A TU BOCA
          SOL6      FA maj7  MI7/9
    SIN DESEÁRTELA DE UNA MANERA LOCA,
    
  • Letra y Acordes
    G = 355433
    
    Intro: G
    e|---3--------3-------3---------3-----|
    B|----3-3------3-3-----3-3-------3-3--|
    G|-4---4--4/5---4---4---4---4/5---4---|
    D|------------------------------------|
    A|------------------------------------|
    E|-3------3---------3-------3---------|
    
    G                        F#m         B            Em  [Em - Ebm - Dm] - G
    Hace falta que te diga que me muero por tener algo contigo
      C                            E                        Am
    es que no te has dado cuenta de lo mucho que me cuesta ser tu amigo
    Cm                       F             G          [G  -  F  -  E]
    ya no puedo acercarme a tu boca, sin deseártela de una manera loca
         Am                        A                  D
    necesito controlar tu vida, saber quién te besa y quién te abriga.
    
    G                        F#m         B            Em  [Em - Ebm - Dm] - G
    
  • Letra y Acordes
    G                        F#m         B            Em7  [Ebm7 - Dm7] - G7
    Hace falta que te diga que me muero por tener algo contigo
      Cmaj7                          Bm7b5        E7                 Am
    es que no te has dado cuenta de lo mucho que me cuesta ser tu amigo
    Cm7                      F7                     G          [D/F#  - F7 - E7]
    ya no puedo acercarme a tu boca, sin deseártela de una manera loca
         Am7                        A7                     Am7       D7
    necesito controlar tu vida, saber quién te besa y quién te abriga.
    
    (VERSO 2)
    G                        F#m         B            Em7  [Ebm7 - Dm7] - G7
    Hace falta que te diga que me muero por tener algo contigo
      Cmaj7                Bm7b5                 E7                 Am
    es que no te has dado cuenta de lo mucho que me cuesta ser tu amigo
    Cm7                      F                     G          [G  -  D/F#  -  E7]
    ya no puedo continuar espiando, día y noche, tu llegar adivinando
    Am7                      D            Bm7            E7
    ya no sé con qué inocente excusa pasar por tu casa, oh oh...
    Am7                                [Cm7    F7]       G   [D/F#  - F7 - E7]
    ya me quedan tan pocos caminos y aunque pueda parecerte un desatino
    
  • Tablatura
    e--3--------3-----|--3--------3-----|--3--------3-----|--3--------3-----|
    B---3-3------3-3--|---3-3------3-3--|---3-3------3-3--|---3-3------3-3--|
    G----4--4/5---5---|----4--4/5---5---|----4--4/5---5---|----4--4/5---5---|
    D-4---------------|-4---------------|-4---------------|-4---------------|
    A-----------------|-----------------|-----------------|-----------------|
    E-3------3--------|-3------3--------|-3------3--------|-3------3--------|
    
    -Falta que te diga que me muero por tener algo contigo...
    
         SOL         LAm/FA#           SI        MIm RE#m7  RE7
    e--3------3----|---------------|-------------|--|----|--0/1/0---|
    B----3-3---3-3-|----2------4---|---------3/5-|3-|----|--1-----1-|
    G-----4-----4--|----2------2-2-|-------0-----|--|--6-|----------|
    D-4------4-----|----2------4-4-|-----4-------|--|--5-|----------|
    A--------------|-------0-2-----|---2---------|2-|-6-6|--0-------|
    E-3------3-----|-2-------------|-0-----------|--|----|----------|
    
     SOL7         DOmaj7     SIm7   MI7    LAm
    |-----------|-----3-----|---0-|-0--0-|----------------------------------|
    |-----5-----|-5-----5---|--3--|-0-0--|-1-----0/1---------1--1---0/1-----|
    
  • Tab p/Bajo
    No se bien parece bossa
    recien aprendo eso
    bueno
    aca esta una cancion la mas hermosa que escuche
    dice mucho
    repite y repite
    pero dice mucho
    a quien mas te lo dedico Andrea
    no se si te gusta este estilo de musica
    pero no importa dice mucho
    atte. miauri
    Clave 2:3
    Intro
    E|--3-------|-3---------|-3-------|-3----------|
    A|---5--5/3-|--5--5-5/3-|--5--5/3-|--5--5-5/3--|
    D|----5-----|---5-------|---5-----|---5--------|
    G|----------|-----------|---------|------------|
    
    Hace falta que te diga
    E|--3------|-----|-----|-----|---|----------|
    A|---5--5--|--4--|---2-|-----|---|-5-5-5-4--|
    D|----5--5-|-4-4-|--4--|-2-2-|-1-|--7-5-----|
    G|---------|-----|-4---|--4--|---|----------|
    
    Es que no te
    E|---3-----|-----|-----|-----|-------------|----|
    A|--3-3--3-|-2-2-|--2--|-0-0-|-------------|----|
    D|------5--|--4--|-2-2-|--2--|-------------|-2--|
    G|---------|-----|-----|-----|-0h2-4-5-4-2-|----|
    
    Ya no puedo
    E|-----------|--------|-----|-----|-----|----|
    A|--3-3----3-|-----3--|--5--|-----|--2--|-2--|
    D|---5-
  • +
    ¡Colabora con nosotros!
    Envíanos tu versión de esta canción
  • Tutorial
    HD
    Vicentico - Algo Contigo Tutorial Guitarra PASO A PASO (HD)
    17:38
  • Tutorial
    HD
    Como tocar Algo Contigo de Vicentico - Tutorial en Guitarra
    15:42
  • Tutorial
    HD
    Algo Contigo De Vicentico Cómo Tocar En Guitarra
    7:12

Letra de Algo contigo
¿HACE FALTA Q TE DIGA
QUE ME MUERO POR TENER ALGO CONTIGO?
¿ES QUE NO TE HAS DADO CUENTA
DE LO MUCHO QUE ME CUESTA SER TU AMIGO?
YA NO PUEDO ACERCARME A TU BOCA
SIN DESEÁRTELA DE UNA MANERA LOCA,
NECESITO CONTROLAR TU VIDA,
SABER QUIÉN TE BESA Y QUIÉN TE ABRIGA...
¿HACE FALTA QUE TE DIGA
QUE ME MUERO POR TENER ALGO CONTIGO?
¿ES QUE NO TE HAS DADO CUENTA
DE LO MUCHO QUE ME CUESTA SER TU AMIGO?
YA NO PUEDO CONTINUAR ESPIANDO
DÍA Y NOCHE TU LLEGAR ADIVINANDO
YA NO Sé CON QUÉ INOCENTE EXCUSA
PASAR POR TU CASA... OH
YA ME QUEDAN MUY POCOS CAMINOS
Y AUNQUE PUEDA PARECERTE UN DESATINO
NO QUISIERA YO MORIRME SIN TENER ALGO CONTIGO.
¿HACE FALTA QUE TE DIGA
QUE ME MUERO POR TENER ALGO CONTIGO?
¿ES QUE NO TE HAS DADO CUENTA
DE LO MUCHO QUE ME CUESTA SER TU AMIGO?
YA NO PUEDO ACERCARME A TU BOCA
SIN DESEÁRTELA DE UNA MANERA LOCA,
NECESITO CONTROLAR TU VIDA,
SABER QUIÉN TE BESA Y QUIÉN TE ABRIGA

YA ME QUEDAN MUY POCOS CAMINOS
Y AUNQUE PUEDA PARECERTE UN DESATINO
NO QUISIERA YO MORIRME SIN TENER ALGO CONTIGO.
Antes de escribirme, si tienen alguna duda por las notas
visiten el sitio www.chordfind.com, si no encuentran alguna
entonces escribanme.



© LaCuerda.net · aviso legal · privacidad · contacto