Acordes de Guitarra » V »Vertical » Rey de majestad (Tab)

Rey de majestad
Vertical

Letras, Acordes y Tabs para Guitarra, Bajo y Ukulele

  • B E G#m E  B G#m F#m E
    
    B
    Sabes que te amo
    G#m
    Sabes que yo quiero
    F#
    Conocerte más
    E
    Mucho mas que antes   B, E, G#m  E
    
    
    B
    Mis palabras, son reales
    G#m
    Y no las invento
    F#
    Vivo para ti
    E
    Yo me dedico a ti     B, E, G#m, E
    
  • e|-----------------------------------------------------------------------|
    B|-14b-14b-14-----12---12s-----------------------------------------------|
    G|------------13v------13s----------------------------11-8---------------|
    D|---------------------------------9-11-11s13-11-9---------11v--*11-9----|
    A|----------------------------9-11-----------------11----------------11--|
    E|-----------------------------------------------------------------------|
    
             00:11
    e|--------------|
    B|--------------|
    G|---11s13s11---|
    D|---10s12s10---|
    A|---12s14s12---|
    E|--------------|
    
      00:12                                       00:16
    e|-----------------------------------14----------------|
    B|-14b---14b---12h14p12----------12-----14-12----12----|
    G|----------------------13-11-13--------------12-------|
    D|-----------------------------------------------------|
    
  •    B5        E5     F#5       E5       B5 , E5 , F#5 , E5
    ////Cristo eres el salvador de mi ser
            B5        E5     F#5
    Y por siempre y siempre daré
        E5                    B5 , E5 , F#5 , E5
    Alabanzas a ti///
    
    
    SOLO:
    
    e|--9b-9b-7--7----------------------------9b-9b-7----7---------|
    B|---------9-7-----------------------------------9-9-7---------|
    G|-------------6--------8----11------6/8-----------------------|
    D|-----------------9h11--11-9--11-9v---------------------------|
    A|-------------------------------------------------------------|
    E|-------------------------------------------------------------|
    
    
    e|---9-7-7--9p7--9p7--9p7--9p7--9v-----------------------------|
    B|------9------9----9----9----9---9---7p5--7p5--7p5--7p5-7v----|
    
  • +
    ¡Colabora con nosotros!
    Envíanos tu versión de esta canción

Letra de Rey de majestad
Sabes que te amo
Sabes que yo quiero
Conocerte más
Mucho mas que antes B, E, G#m E
Mis palabras, son reales
Y no las invento
Vivo para ti
Yo me dedico a ti B, E, G#m, E
Rey de majestad, tengo un deseo
Estar contigo mi Señor
Estar contigo mi Señor
Cristo eres el salvador de mi ser
Y por siempre y siempre daré
Alabanzas a ti




[Rey de majestad chords][Rey de majestad cifra]
© LaCuerda.net · aviso legal · privacidad · es · en · pt · contacto
DINAMICO